>
 >
Bothar

Bothar Guitar Tabs

Stone  Sour - Bothar chords, tabs, tablatures, lyrics

Guitar lessons | Add/correct | Request | Top 50 tabs Artists:  A B C D E F G H I J K L M N O P Q R S T U V W X Y Z 0-9

Bothar Guitar Tabs – Stone Sour

CD, Sheet music, Poster

Do you like Bothar? Share with your friends now
Tabs
Standard Tuning (E-A-D-G-B-E)

Key
H = hammer-on
P = pull-off
/ = Slide up
\ = Slide down
^ = Upstroke

Intro/Interlude
E |------------------------------------------------------------------------
B |--6h7--6--6h7p6--------7---6--6h7p6--------7---6---6h7p6--------7--6----
G |--6h8--6--------8p6----6---6--------8p6----6---6---------8p6----6--6----
D |--6h8--6------------8--8---6------------8--8---6-------------8--8--6----
A |--6----6---------------6---6---------------6---6----------------6--6----
E |------------------------------------------------------------------------
		          ^	              ^		     ^ 

Verse:  0:10 seconds - “Wish I was…”
E |---------------------------------------------------------------------------
B |---7----6----6h7----6--------2------7---6—6h7p6---------7---6---6h7---6----
G |---8----6----6h8----6-----3--3--3---8---6-------8p6-----8---6---6h8---6----
D |---8----6----6h8----6-----4--4--4---8---6-----------8---8---6---6h8---6----
A |---6----6----6------6---4-4--4--4---6---6---------------6---6---6-----6----
E |------------------------2-2--2--2------------------------------------------

E |------------------------2---2--2-------------------------------
B |----------2-------------2---2--2---6--6--6--6-------------
G |------3--3--3--------3--3---3------6--6--6--6-------------
D |------4--4--4--------4--4----------6--6--6--6-------------
A |---4--4--4--4--4-----4-------------6--6--6--6-------------
E |---2--2--2--2--2-----2-----------------------------------------

Chorus: 0:32 seconds – “You don’t need to bother…”
E |-----------------------------------------------------------
B |---7---6---7---6----------------6h7---7---7----7---7---6---
G |---8---6---8---7---7--7--7--7---6h8---8---8----6---6---6---
D |---8---6---8---8---8--8--8--8---6h8---8---8----8---8---6---
A |---6---6---7---8---8--8--8--8---6-----6---6----6---6---6---
E |-----------6---6---6--6--6--6------------------------------

E |-----------------------------------
B |---------2---------------4---------
G |------3--3--3---------5--5--5------
D |---4--4--4--4--4---6--6--6--6--6---
A |---4--4--4--4--4---6--6--6--6--6---
E |---2--2--2--2--2---4--4--4--4--4---

0:52 seconds – Interlude

1:04 – Verse 1x

Breakdown: 1:25 – Play each chord 6 or 7x, listen for strumming pattern…
E |---------|---------|---------|---------|
B |----7----|---------|---------|----6----|
G |----8----|----7----|----3----|----6----|
D |----8----|----8----|----4----|----6----|
A |----6----|----8----|----4----|----6----|
E |---------|----6----|----2----|---------|

1:36 seconds – Chorus 1x

1:58 seconds – Solo

E |----------------------------------------------------------------------------
B |----9p7--6h7--------7/9\7---6--------------7--------------------------------
G |--------------8h10-------------8--6--6h8---8---6h8p6------------------------
D |-------------------------------------------8----------6--8------4h6--6/8----
A |-------------------------------------------6----------------4h6-------------
E |----------------------------------------------------------------------------

E |----------------------------------------------------------------------
B |----------------------------------------------------------------------
G |--6h8p6---8--13b----11----13p11---10h11p10----8----10----6----6h8-----
D |----------6-----------------------------------------------------------
A |----------------------------------------------------------------------
E |----------------------------------------------------------------------

2:18 seconds – Interlude

2:29 seconds – Verse

2:50 seconds – Chorus 2x

3:25 seconds – Interlude

3:46 seconds – Outro – Right after the last chord of the interlude, upstroke this slow
E |---6------------------
B |----7-----------------
G |-----8----------------
D |------8---------------
A |-------6--------------
E |-----------------------





Comments


Popular Stone Sour tabs & chords
Blotter Bass Tabs
Take A Number 2 Bass Tabs
Wicked Game 1 Chords
Absolute Zero Tabs
Choose 2 Tabs
Come What(Ever) May Tabs
Idle Hands Tabs
In Hale 2 Tabs
The Bitter End Tabs
Through Glass Tabs


Song lyrics



↑ Back to top | Tablatures and chords are parodies/interpretations of the original songs. You may use it for private study, scholarship, research or language learning purposes only
© 2014 AZChords.com Contact us | Privacy policy | DMCA | Add/correct tabs | Request tabs | Top 50 tabs