>
 >
Blotter 2

Blotter 2 Guitar Tabs

Stone  Sour - Blotter 2 chords, tabs, tablatures, lyrics

Guitar lessons | Add/correct | Request | Top 50 tabs Artists:  A B C D E F G H I J K L M N O P Q R S T U V W X Y Z 0-9

Blotter 2 Guitar Tabs – Stone Sour

CD, Sheet music, Poster

Do you like Blotter 2? Share with your friends now
Bass TabsBass Tabs v2TabsTabs v2Tabs v3Tabs v4
BAND:STONE SOUR
ALBUM:STONE SOUR

TUNING: DROP B (B,F#,B,E,G#,C#,)


* = PALM MUTE
/ = SLIDE
# = HARMONIC
~ = LET NOTE RING OUT


 OK I COULDNT FIND A DECENT TAB OF THIS SO I TABBED IT MYSELF AND ITS
 100% CORRECT.


  INTRO

C#----------------------------------------|
G#----------------------------------------|
E-----------------------------------------|
B------------------------9----------------|
F#----2-0-2--5-4-3--0-2--7--2--8-9-8------|
B-----2-0-2--5-4-3--0-2-----2--8-9-8------|

C#----------------------------------------|
G#----------------------------------------|
E-----------------------------------------|
B------------------------3-----3-3-3------|
F#----2-0-2--5-4-3--0-2--1--2--1-1-1------|
B-----2-0-2--5-4-3--0-2-----2-------------|


   VERSE RIFF

C#-----------------------------------------|
G#-----------------------------------------|
E--------------------------------5#-5#-5#--|
B-----------3-----------3------------------|
F#----2-----1-----2-----1-----2------------|
B-----2-0-0---0-0-2-0-0---0-0-2------------|
      * * *   * * * * *   * * *


C#-----------------------------------------|
G#-----------------------------------------|
E------------------------------------------|
B-----------3-----------3-----------5------|
F#----2-----1-----2-----1-----2-3-2-3------|
B-----2-0-0---0-0-2-0-0---0-0-2-3-2--------|
      * * *   * * * * *   * * * * *


 RIFF1 ("SKIN...TO FEEL YOU THERE...TOUCH MY FACE")

C#----------------------------------|
G#----------------------------------| X2
E--------------3~-------------------|
B-----2~-------3~----2~-------3--5--|
F#----2~--0-2--1~----2~--0-2--3--3--|
B-----2~--0-2--------2~--0-2--3--3--|
          * *            * *


  RIFF2 ("SEE MY...LIFE,GIVE ME.....YOUR LIFE')


   GTR 1 (W/WAH)
C#------------------|
G#------------------|
E-----5-/9-4--7-9---|
B-----X--X-X--X-X---|
F#----3-/7-2--5-7---|
B-------------------|


   GTR 2
C#------------------------------------------------------------|
G#------------------------------------------------------------|
E-------------------------------------------------------------|
B-------------------------------------------------------------|
F#------------------------------------------------------------|
B-----3-22-3-22-3-22-3-22-3-22-3--2-00-2-00-2-00-2-00-2-00-2--|


 THEN THIS.

C#-----------------------------------------|
G#-----------------------------------------|
E--------------------------------5#-5#-5#--|
B-----------3-----------3------------------|
F#----2-----1-----2-----1-----2------------|
B-----2-0-0---0-0-2-0-0---0-0-2------------|
      * * *   * * * * *   * * *

C#-----------------------------------------|
G#-----------------------------------------|
E------------------------------------------|
B-----------3-----------3-----------5------|
F#----2-----1-----2-----1-----2-3-2-3------|
B-----2-0-0---0-0-2-0-0---0-0-2-3-2--------|
      * * *   * * * * *   * * * * *

C#-----------------------------------------|
G#-----------------------------------------|
E--------------------------------5#-5#-5#--|
B-----------3-----------3------------------|
F#----2-----1-----2-----1-----2------------|
B-----2-0-0---0-0-2-0-0---0-0-2------------|
      * * *   * * * * *   * * *

C#-----------------------------------------|
G#-----------------------------------------|
E------------------------------------------|
B-----------3-----------3------------------|
F#----2-----1-----2-----1-----2------------|
B-----2-0-0---0-0-2-0-0---0-0-2------------|
      * * *   * * * * *   * *

THEN PLAY
VERSE RIFF
RIFF 1 X2
RIFF 2


   RIFF 3 X2          ("INCREDIBLE!")
C#----------------------------------|
G#----------------------------------|
E-----------------------------------|
B-----------------------------------|
F#----5-2--5-2--5-2--5-2------------|
B-----5-2--5-2--5-2--5-2--/6~-6~----|


                        ("CHEMICAL!")
C#----------------------------------|
G#----------------------------------|
E-----------------------------------|
B-----------------------------------|
F#----5-2--5-2--5-2--5-2------------|
B-----5-2--5-2--5-2--5-2--/3~-3~----|


   END WITH THIS
C#----------------------------------|
G#----------------------------------|
E-----------------------------------|
B-----------////--------------------|
F#----2~----////PICKSCRAPES----2~---|
B-----2~-----------------------2~---|


 ("BEFORE I SHOW YOU WHERE THE SECRET IS......")

C#--------------2219~~---------------|
G#----12/17~~------------------------| X2 WITH DELAY
E------------------------------------|
B------------------------------------|
F#-----------------------------------|
B------------------------------------|

C#----------------------------------------|
G#----------------------------------------|
E-----------------------------------------| X2
B-----------------------------------------|
F#----2-2-2-0--2-2-2-0--2-2-2-0--2-3-2-0--|
B-----2-2-2-0--2-2-2-0--2-2-2-0--2-3-2-0--|
      * * * *  * * * *  * * * *  * * * *


THEN PLAY
RIFF 2

   OUTRO X4            ("INCREDIBLE!")
C#----------------------------------|
G#----------------------------------|
E-----------------------------------|
B-----------------------------------|
F#----5-2--5-2--5-2--5-2------------|
B-----5-2--5-2--5-2--5-2--/6~-6~----|


                        ("CHEMICAL!")
C#----------------------------------|
G#----------------------------------|
E-----------------------------------|
B-----------------------------------|
F#----5-2--5-2--5-2--5-2------------|
B-----5-2--5-2--5-2--5-2--/3~-3~----|


 THATS ALL ENJOY PLZ RATE THIS AWSOME SONG.





Comments


Popular Stone Sour tabs & chords
Socio 2 Bass Tabs
Blotter Official Tabs
Delightful Shoes Tabs
Idle Hands 2 Tabs
Mission Statement 1 Tabs
Say Youll Haunt Me 8 Tabs
Sillyworld Tabs
Through Glass Live Tabs
Tired Tabs
The Conflagration Ukulele


Song lyrics



↑ Back to top | Tablatures and chords are parodies/interpretations of the original songs. You may use it for private study, scholarship, research or language learning purposes only
© 2014 AZChords.com Contact us | Privacy policy | DMCA | Add/correct tabs | Request tabs | Top 50 tabs