» » »

Blotter Bass tabs (ver.2)

Artists:  A B C D E F G H I J K L M N O P Q R S T U V W X Y Z # 

Blotter Bass tabs (ver.2)

Stone Sour
Rating:
0/5 (0 votes)

Tabs too difficult? Try these video lessons and learn fast.
                -------------------------------------------------------------------------------
			     Blotter – Stone Sour
-------------------------------------------------------------------------------


Tuning: Drop B

E |-----------------------------|-----------------------------|
B |-----------------------------|-----------------------------|
F#|------------------7---1-2-1--|------------------1---1-1-1--|  x4
B |--2-0-2-6-5-2-0-2---2--------|--2-0-2-6-5-2-0-2---2--------|

E |-----------------------------|-----------------------------------|
B |-----------------------------|-----------------------------------|
F#|--------1-----------1--------|--------1-----------1--------------|  x2
B |--2-0-2---2-0-2-0-2---2-0-2--|--2-0-2---2-0-2-0-2---2-0-2-3-2-3--|

E |-------------------------------|-------------------------------|
B |-------------------------------|-------------------------------|
F#|----------1-----------------3--|----------1-----------------3--|
B |--2---0-2-----0-2---0—2-3------|--2---0-2-----0-2---0-2-3------|

E |-------------------------------|-------------------------------|
B |-------------------------------|-------------------------------|
F#|-------------------------------|-------------------------------|  x2
B |--3--0-3--0-3-0-33-0-3--0-3-0--|--2--0-2--0-2-0-22-0-2--0-2-0--|

E |-----------------------------|-----------------------------------|
B |-----------------------------|-----------------------------------|
F#|--------1-----------1--------|--------1-----------1--------------|
B |--2-0-2---2-0-2-0-2---2-0-2--|--2-0-2---2-0-2-0-2---2-0-2-3-2-3--|

E |-----------------------------|-----------------------------|
B |-----------------------------|-----------------------------|
F#|--------1-----------1--------|--------1-----------1--------|
B |--2-0-2---2-0-2-0-2---2-0-2--|--2-0-2---2-0-2-0-2---2-0-2--|

E |-----------------------------|-----------------------------------|
B |-----------------------------|-----------------------------------|
F#|--------1-----------1--------|--------1-----------1--------------|  x2
B |--2-0-2---2-0-2-0-2---2-0-2--|--2-0-2---2-0-2-0-2---2-0-2-3-2-3--|

E |-------------------------------|-------------------------------|
B |-------------------------------|-------------------------------|
F#|----------1-----------------3--|----------1-----------------3--|
B |--2---0-2-----0-2---0—2-3------|--2---0-2-----0-2---0-2-3------|

E |-------------------------------|-------------------------------|
B |-------------------------------|-------------------------------|
F#|-------------------------------|-------------------------------|  x2
B |--3--0-3--0-3-0-33-0-3--0-3-0--|--2--0-2--0-2-0-22-0-2--0-2-0--|

E |-----------------------------|-------------------------------|
B |-----------------------------|-------------------------------|
F#|-----------------------------|-------------------------------|  x2
B |--5-2-0-2---5-2-0-2---6-6-6--|--5-2-0-2---5-2-0-2-0---3-3-3--|

E |-------------|---------------------------|
B |-------------|---------------------------|
F#|-------------|------------7-7---5-7-5-7--|  x4
B |--2----------|--0-2-0-2------------------|

E |-----------------------------------|
B |-----------------------------------|
F#|-----------------------------------|  x4
B |--2-2-2-0-2-2-2-0-2-2-2-0-2-3-2-3--|

E |-------------------------------|-------------------------------|
B |-------------------------------|-------------------------------|
F#|-------------------------------|-------------------------------|  x4
B |--3--0-3--0-3-0-33-0-3--0-3-0--|--2--0-2--0-2-0-22-0-2--0-2-0--|

E |-----------------------------|-------------------------------|
B |-----------------------------|-------------------------------|
F#|-----------------------------|-------------------------------|  x4
B |--5-2-0-2---5-2-0-2---6-6-6--|--5-2-0-2---5-2-0-2-0---3-3-3--|


| /  slide up
| \  slide down
| h  hammer-on
| p  pull-off
| ~  vibrato
| +  harmonic
| x  Mute note
===============================================================================
            
Tabs too difficult? Try these video lessons and learn fast.


comments powered by Disqus
↑ Back to top | Tablatures and chords are parodies/interpretations of the original songs. You may use it for private study, scholarship, research or language learning purposes only