>
 >
Blotter

Blotter Guitar Tabs

Stone  Sour - Blotter chords, tabs, tablatures, lyrics

Guitar lessons | Add/correct | Request | Top 50 tabs Artists:  A B C D E F G H I J K L M N O P Q R S T U V W X Y Z 0-9

Blotter Guitar Tabs – Stone Sour

CD, Sheet music, Poster

Do you like Blotter? Share with your friends now
Bass TabsBass Tabs v2TabsTabs v2Tabs v3Tabs v4
Gtr I (B F# B E G# C#) - 'Jim Root'
Gtr II (B F# B E G# C#) - 'Josh Rand'
Gtr III (B F# B E G# C#) - 'Clean Electric'
Gtr IV (B F# B E G# C#) - 'Slide Guitar'


 Intro
  Moderately Fast Q=157
                 E5D5E5AbG5F5D5E5            BbB5Bb5 E5D5E5AbG5F5D5E5
 4/4
  Gtr I          Gtrs I, II
  Wx8            E E E E E E E E   E E E E E E E E   E E E E E E E E
|------------||------------------|-----------------|-----------------|
|------------||o-----------------|-----------------|-----------------|
|------------||------------------|---4-------------|-----------------|
|------------||------------------|---2-------3s4s3-|-----------------|
|------------||o-2-0-2-6-5-3-0-2-|-------2---1s2s1-|-2-0-2-6-5-3-0-2-|
|------------||--2-0-2-6-5-3-0-2-|-------2---------|-2-0-2-6-5-3-0-2-|


                         Verse
    Bb5 E5  Bb5           E5D5E5BbE5D5E5D5
                          PM--|   PM-------
  E E E E E E E E         E E E E E E E E
|------------------||-||------------------|
|-----------------o||-||o-----------------|
|------------------||-||------------------|
|---3-------3-3-3--||-||--------3---------|
|---1---2---1-1-1-o||-||o-2-0-2-1-2-0-2-0-|
|-------2----------||-||--2-0-2---2-0-2-0-|


  E5BbE5D5                E5D5E5BbE5D5E5D5
 -|   PM--|               PM--|   PM----|
  E E E E E  E   E   E    E E E E E E E E
|-----------------------|-----------------|
|-----------------------|-----------------|
|-----------<5>-<5>-<5>-|-----------------|
|---3-------<4>-<4>-<4>-|-------3---------|
|-2-1-2-0---------------|-2-0-2-1-2-0-2-0-|
|-2---2-0-0-------------|-2-0-2---2-0-2-0-|


  E5BbE5D5E5F5E5F5  E5D5E5BbE5D5E5D5  E5BbE5D5                E5D5E5BbE5D5E5D5
                    PM--|   PM--------|   PM--|               PM--|   PM----|
  E E E E E E E E   E E E E E E E E   E E E E E  E   E   E    E E E E E E E E
|-----------------|-----------------|-----------------------|-----------------|
|-----------------|-----------------|-----------------------|-----------------|
|-----------------|-----------------|-----------<5>-<5>-<5>-|-----------------|
|---3-------------|-------3---------|---3-------<4>-<4>-<4>-|-------3---------|
|-2-1-2-0-2-3-2-3-|-2-0-2-1-2-0-2-0-|-2-1-2-0---------------|-2-0-2-1-2-0-2-0-|
|-2---2-0-2-3-2-3-|-2-0-2---2-0-2-0-|-2---2-0-0-------------|-2-0-2---2-0-2-0-|


                    Pre-Chorus
  E5BbE5D5E5F5E5F5   E5      D5E5  Bb5        E5      D5E5
  E E E E E E E E    H.      E E   W          H.      E E
|-----------------||-------------|----------|-------------|
|-----------------||-------------|----------|-------------|
|-----------------||-------------|----------|-------------|
|---3-------------||-------------|-3--------|-------------|
|-2-1-2-0-2-3-2-3-||-2-------0-2-|-1--------|-2-------0-2-|
|-2---2-0-2-3-2-3-||-2-------0-2-|----------|-2-------0-2-|


  F5   C5     E5      D5E5  Bb5        E5      D5E5  F5   C5
  H    H      H.      E E   W          H.      E E   H    H
|-----------|-------------|----------|-------------|-----------|
|-----------|-------------|----------|-------------|-----------|
|-----------|-------------|----------|-------------|-----------|
|------5----|-------------|-3--------|-------------|------5----|
|-3----3----|-2-------0-2-|-1--------|-2-------0-2-|-3----3----|
|-3---------|-2-------0-2-|----------|-2-------0-2-|-3---------|


  C/F                                      Em
  Gtr III
  W                  +W                    W                  +W
  |                   |                    |                   |
  /                   /                    /                   /

  Gtr I
  Q  E E +E  E E E    Q   E  E +E  E E E   Q  E E +E  E E E    Q.   E +E  Q  E
|------------------|---------------------|------------------|------------------|
|------------------|---------------------|------------------|------------------|
|------------------|---------------------|------------------|--7----9-(9)-9----|
|------------------|---------------------|------------------|--x----x-(x)-x----|
|-3--0-3-(3)-0-3-0-|--3---0--3-(3)-0-3-6-|-2--0-2-(2)-0-2-0-|--5----7-(7)-7--0-|
|-3--0-3-(3)-0-3-0-|--3---0--3-(3)-0-3-6-|-2--0-2-(2)-0-2-0-|------------------|
|
| Gtr II
| W                  +Q.     E +Q    E E   W                  +H      +Q.    E
|------------------|---------------------|------------------|------------------|
|------------------|---------------------|------------------|------------------|
|------------------|---------------------|------------------|------------------|
|------------------|---------------------|------------------|------------------|
|-3----------------|-(3)----/8-(8)---7p5-|-2----------------|-(2)-----(2)----0-|
|-3----------------|-(3)-----------------|-2----------------|-(2)-----(2)------|


  C/F
  W                  +W
  |                   |
  /                   /

  Q  E E +E  E E E    Q   E  E +E  E E E
|------------------|---------------------|
|------------------|---------------------|
|------------------|---------------------|
|------------------|---------------------|
|-3--0-3-(3)-0-3-0-|--3---0--3-(3)-0-3-6-|
|-3--0-3-(3)-0-3-0-|--3---0--3-(3)-0-3-6-|
|
| W                  +Q.     E +Q    E E
|------------------|---------------------|
|------------------|---------------------|
|------------------|---------------------|
|------------------|---------------------|
|-3----------------|-(3)----/8-(8)---7p5-|
|-3----------------|-(3)-----------------|


  Em
  W                  +W
  |                   |
  /                   /

  Q  E E +E  E E E    Q.   E +E  Q  E
|------------------|------------------||
|------------------|------------------||
|------------------|--7----9-(9)-9----||
|------------------|--x----x-(x)-x----||
|-2--0-2-(2)-0-2-0-|--5----7-(7)-7--0-||
|-2--0-2-(2)-0-2-0-|------------------||
|
| W                  +H      +Q.    E
|------------------|------------------||
|------------------|------------------||
|------------------|------------------||
|------------------|------------------||
|-2----------------|-(2)-----(2)----0-||
|-2----------------|-(2)-----(2)------||


 Interlude I
  1.
  E5D5E5BbE5D5E5D5  E5BbE5D5                E5D5E5BbE5D5E5D5  E5BbE5D5E5F5E5F5
  Gtrs I, II
  PM--|   PM--------|   PM--|               PM--|   PM--------|   PM--------|
  E E E E E E E E   E E E E E  E   E   E    E E E E E E E E   E E E E E E E E
|-----------------|-----------------------|-----------------|-----------------|
|-----------------|-----------------------|-----------------|-----------------|
|-----------------|-----------<5>-<5>-<5>-|-----------------|-----------------|
|-------3---------|---3-------<4>-<4>-<4>-|-------3---------|---3-------------|
|-2-0-2-1-2-0-2-0-|-2-1-2-0---------------|-2-0-2-1-2-0-2-0-|-2-1-2-0-2-3-2-3-|
|-2-0-2---2-0-2-0-|-2---2-0-0-------------|-2-0-2---2-0-2-0-|-2---2-0-2-3-2-3-|


  E5D5E5BbE5D5E5D5  E5BbE5D5                D5E5D5BbE5D5E5D5  E5BbE5D5E5
  PM--|   PM--------|   PM--|               PM--|   PM--------|   PM--|
  E E E E E E E E   E E E E E  E   E   E    E E E E E E E E   E E E E E E Q
|-----------------|-----------------------|-----------------|-----------------||
|-----------------|-----------------------|-----------------|----------------o||
|-----------------|-----------<5>-<5>-<5>-|-----------------|-----------------||
|-------3---------|---3-------<4>-<4>-<4>-|-------3---------|---3-------------||
|-2-0-2-1-2-0-2-0-|-2-1-2-0---------------|-2-0-2-1-2-0-2-0-|-2-1-2-0-2------o||
|-2-0-2---2-0-2-0-|-2---2-0-0-------------|-2-0-2---2-0-2-0-|-2---2-0-2-------||


 Chorus
  2.
  G5E5 D5E5 G5E5      D5E5D5E5Ab5    G5E5 D5E5 G5E5      D5E5D5E5F5
  Gtrs I, II
  E Q  E Q  E E   +E  E E E E E Q    E Q  E Q  E E   +E  E E E E E Q
|---------------|------------------|---------------|------------------|
|---------------|------------------|---------------|------------------|
|---------------|------------------|---------------|------------------|
|---------------|------------------|---------------|------------------|
|-5-2--0-2--5-2-|-(2)-0-2-0-2-6-6--|-5-2--0-2--5-2-|-(2)-0-2-0-2-3-3--|
|-5-2--0-2--5-2-|-(2)-0-2-0-2-6-6--|-5-2--0-2--5-2-|-(2)-0-2-0-2-3-3--|


  G5E5 D5E5 G5E5      D5E5D5E5Ab5    G5E5 D5E5 G5E5      D5E5D5E5F5
  E Q  E Q  E E   +E  E E E E E Q    E Q  E Q  E E   +E  E E E E E Q
|---------------|------------------|---------------|------------------||
|---------------|------------------|---------------|------------------||
|---------------|------------------|---------------|------------------||
|---------------|------------------|---------------|------------------||
|-5-2--0-2--5-2-|-(2)-0-2-0-2-6-6--|-5-2--0-2--5-2-|-(2)-0-2-0-2-3-3--||
|-5-2--0-2--5-2-|-(2)-0-2-0-2-6-6--|-5-2--0-2--5-2-|-(2)-0-2-0-2-3-3--||


 Interlude II
  E5
  Gtr II
  W          +W           +W           +W
  |           |            |            |
  /           /            /            /

  Gtr IV
  W           W            W            W
|----------|------------|------------|---------------|
|----------|------------|------------|---------------|
|----------|------------|------------|---------------|
|----------|------------|------------|---------------|
|----------|------------|------------|---------------|
|----------|------------|------------|---------------|
|
| Gtr I
| W          +W           +W           +E  Q.  Q  Q
|----------|------------|------------|---------------|
|----------|------------|------------|---------------|
|----------|------------|------------|---------------|
|----------|------------|------------|-----xS==xS=x--|
|-2--------|-(2)--------|-(2)--------|-(2)-xS==xS=x--|
|-2--------|-(2)--------|-(2)--------|-(2)-xS==xS=xS=|


  E5
  W          +W           +W           +W
  |           |            |            |
  /           /            /            /

  W           W            W            H      Q   Q
|----------|------------|------------|------------------||
|----------|------------|------------|------------------||
|----------|------------|------------|------------12/---||
|----------|------------|------------|------------------||
|----------|------------|------------|------------------||
|----------|------------|------------|------------------||
|
|                                       |-3--|
| W          +W           +W           +Q  Q Q Q   Q
|----------|------------|------------|------------------||
|----------|------------|------------|------------------||
|----------|------------|------------|------------------||
|----------|------------|------------|------------------||
|-2--------|-(2)--------|-(2)--------|-(2)--------------||
|-2--------|-(2)--------|-(2)--------|-(2)-3-3-3---3----||


 Bridge
  E5
  Gtrs I, II
    W           +W             +W           +W
    |            |              |            |
    /            /              /            /

  Gtr IV
    W           +H      H       W           +H.       Q
|------------|---------------|-----------|---------------|
|-/17--------|-(17)s===16s===|=12--------|-(12)------12--|
|------------|---------------|-----------|---------------|
|------------|---------------|-----------|---------------|
|------------|---------------|-----------|---------------|
|------------|---------------|-----------|---------------|


  E5
   W             +W                 +W           +W
   |              |                  |            |
   /              /                  /            /

   H     H       +H      +Q    Q     W           +H      H
|-------------|-------------------|-----------|----------------||
|-12s===17----|-(17)----(17)s=16s=|=12--------|-(12)----12\----||
|-------------|-------------------|-----------|----------------||
|-------------|-------------------|-----------|----------------||
|-------------|-------------------|-----------|----------------||
|-------------|-------------------|-----------|----------------||


  E5    D5E5    D5  E5    D5E5F5E5D5  E5    D5E5    D5  E5    D5E5F5E5D5
  Gtrs I, II
  E E E E E E E E   E E E E E E E E   E E E E E E E E   E E E E E E E E
|-----------------|-----------------|-----------------|-----------------|
|-----------------|-----------------|-----------------|-----------------|
|-----------------|-----------------|-----------------|-----------------|
|-----------------|-----------------|-----------------|-----------------|
|-2-2-2-0-2-2-2-0-|-2-2-2-0-2-3-2-0-|-2-2-2-0-2-2-2-0-|-2-2-2-0-2-3-2-0-|
|-2-2-2-0-2-2-2-0-|-2-2-2-0-2-3-2-0-|-2-2-2-0-2-2-2-0-|-2-2-2-0-2-3-2-0-|


  E5    D5E5    D5  E5    D5E5F5E5D5  E5    D5E5    D5  E5    D5E5F5E5D5
  E E E E E E E E   E E E E E E E E   E E E E E E E E   E E E E E E E E
|-----------------|-----------------|-----------------|-----------------||
|-----------------|-----------------|-----------------|-----------------||
|-----------------|-----------------|-----------------|-----------------||
|-----------------|-----------------|-----------------|-----------------||
|-2-2-2-0-2-2-2-0-|-2-2-2-0-2-3-2-0-|-2-2-2-0-2-2-2-0-|-2-2-2-0-2-3-2-0-||
|-2-2-2-0-2-2-2-0-|-2-2-2-0-2-3-2-0-|-2-2-2-0-2-2-2-0-|-2-2-2-0-2-3-2-0-||


   Pre-Chorus 2
    F5 D5F5    D5F5D5  F5   D5F5     D5G5Ab5
    Gtr I
    Q  E E +E  E E E    Q   E  E +E  E E E
||-------------------|---------------------|
||o------------------|---------------------|
||-------------------|---------------------|
||-------------------|---------------------|
||o-3--0-3-(3)-0-3-0-|--3---0--3-(3)-0-3-6-|
||--3--0-3-(3)-0-3-0-|--3---0--3-(3)-0-3-6-|
|
|   Gtr II
|   W                  +Q.     E +Q    E E
||-------------------|---------------------|
||o------------------|---------------------|
||-------------------|---------------------|
||-------------------|---------------------|
||o-3----------------|-(3)----/8-(8)---7p5-|
||--3----------------|-(3)-----------------|


  E5 D5E5    D5E5D5  D     E
  Q  E E +E  E E E    Q.   E +E  Q  E   4x
|------------------|--------------------||
|------------------|-------------------o||
|------------------|--7----9-(9)-9------||
|------------------|--x----x-(x)-x------||
|-2--0-2-(2)-0-2-0-|--5----7-(7)-7--0--o||
|-2--0-2-(2)-0-2-0-|--------------------||
|
| W                  +H      +Q.    E   4x
|------------------|--------------------||
|------------------|-------------------o||
|------------------|--------------------||
|------------------|--------------------||
|-2----------------|-(2)-----(2)----0--o||
|-2----------------|-(2)-----(2)--------||


   Outro Chorus
    G5E5 D5E5 G5E5      D5E5D5E5Ab5    G5E5 D5E5 G5E5      D5E5D5E5F5
    E Q  E Q  E E   +E  E E E E E Q    E Q  E Q  E E   +E  E E E E E Q    4x
||----------------|------------------|---------------|--------------------||
||o---------------|------------------|---------------|-------------------o||
||----------------|------------------|---------------|--------------------||
||----------------|------------------|---------------|--------------------||
||o-5-2--0-2--5-2-|-(2)-0-2-0-2-6-6--|-5-2--0-2--5-2-|-(2)-0-2-0-2-3-3---o||
||--5-2--0-2--5-2-|-(2)-0-2-0-2-6-6--|-5-2--0-2--5-2-|-(2)-0-2-0-2-3-3----||




--------------------------------------------------------------------------------


Duration Legend
---------------
W - whole; H - half; Q - quarter; E - 8th; S - 16th; T - 32nd; X - 64th; a - acciaccatura
+ - note tied to previous; . - note dotted; .. - note double dotted
Uncapitalized letters represent notes that are staccato (1/2 duration)
Irregular groupings are notated above the duration line
Duration letters will always appear directly above the note/fret number it represents the
duration for.  Duration letters with no fret number below them represent rests.  Multi-
bar rests are notated in the form Wxn, where n is the number of bars to rest for.  Low
melody durations appear below the staff

Tablature Legend
----------------
 h   - hammer-on
 p   - pull-off
 b   - bend
 pb  - pre-bend
 r   - bend release (if no number after the r, then release immediately)
 /\  - slide into or out of (from/to "nowhere")
 s   - legato slide
 S   - shift slide
 - natural harmonic
[n]  - artificial harmonic
n(n) - tapped harmonic
 ~   - vibrato
 tr  - trill
 T   - tap
 TP  - trem. picking
 PM  - palm muting
\n/  - tremolo bar dip; n = amount to dip
 \n  - tremolo bar down
 n/  - tremolo bar up
/n\  - tremolo bar inverted dip
 =   - hold bend; also acts as connecting device for hammers/pulls
 <> - volume swell (louder/softer)
 x   - on rhythm slash represents muted slash
 o   - on rhythm slash represents single note slash

Misc Legend
-----------
 |  - bar
||  - double bar
||o - repeat start
o|| - repeat end
*|  - double bar (ending)
 :  - bar (freetime)
 $  - Segno
 &  - Coda
Tempo markers -  = BPM(8/16=s8/s16), where s8 = swing 8ths, s16 = swing 16ths





Comments


Popular Stone Sour tabs & chords
Bother Bass Tabs
Say Youll Haunt Me Bass Tabs
Bertha Tabs
Bother 8 Tabs
Do Me A Favor Tabs
Miracles 1 Tabs
Through Glass 5 Tabs
Tumult 1 Tabs
Tumult 2 Tabs
Zzyzx Rd 2 Tabs


Song lyrics



↑ Back to top | Tablatures and chords are parodies/interpretations of the original songs. You may use it for private study, scholarship, research or language learning purposes only
© 2014 AZChords.com Contact us | Privacy policy | DMCA | Add/correct tabs | Request tabs | Top 50 tabs