>
 >
B0ther

B0ther Guitar Tabs

Stone  Sour - B0ther chords, tabs, tablatures, lyrics

Guitar lessons | Add/correct | Request | Top 50 tabs Artists:  A B C D E F G H I J K L M N O P Q R S T U V W X Y Z 0-9

B0ther Guitar Tabs – Stone Sour

CD, Sheet music, Poster

Do you like B0ther? Share with your friends now
Tabs
Corey Taylor and James root did an exalent Job Writting this song. I saw their performance live on stage and they sound just as good, if not better at times.
Standard Tuning 
E|--------|----------------------|
B|-5/7----|---6h7p6--------7-----|
G|-6/8--6-|--------8-6-----8--6--|
D|-6/8--6-|----------------8--6--| last part 3 times
A|-4/6--4-|------------6---6--6--|
E|--------|----------------------|
   ^ You can slide instead of hammer on if its easier, it sounds close                 
Verses:
E|---------6------|---|                   |-------------------|
B|-7--6----7--6---|---|                   |-7-----6h7p6-------|
G|-8--6----8--6---|---|                   |-8--6--------8-6---|
D|-8--6----8--6---|-4-|last chord 7 times |-8--6--------------|
A|-6--6----6--6---|-4-|                   |-6--4------------6-|
E|----------------|-2-|                   |-------------------|

E|---------6------|---|                   |--------------------
B|-7--6----7--6---|---|                   |--------4--4---4--4--
G|-8--6----8--6---|---|                   |--------6--6---6--6--
D|-8--6----8--6---|-4-|last chord 7 times |-4-4-4--6--6---6--6--
A|-6--6----6--6---|-4-|                   |-4-4-4--4--4---4--4--
E|----------------|-2-|                   |-2-2-2--------------
Chorus:
E|-----------------|-------------|
B|-7-------------6-|-------------|
G|-8---------------|-6-----------|
D|-8---------------|-6-----------|
A|-6-----------6---|-4-----------|
E|-----------------|-------------|

E|----------------|-------------------------|
B|--7-------------|--6--------------------7-|
G|--8-------------|--7---7--7---8--8--7---8-|
D|--8-------------|--8---8--8---8--8--8---8-|
A|--6-------------|--8---8--8---8--8--8---6-|
E|----------------|--6---6--6---6--6--6-----|

E|------------------|-----------|
B|--7--7-------7----|--6--------|
G|--8--8-------8----|--6--------|
D|--8--8-------8----|--6--------|
A|--6--6------------|--4--------|
E|------------------|-----------|

E|---|   |---|
B|---|   |---|
G|---|   |---|
D|-4-|x7 |-6-|x7
A|-4-|   |-6-|
E|-2-|   |-4-|
Bridge:
E|---|    |---|   |---|   |---|
B|-7-|    |---|   |---|   |---|
G|-8-|    |-7-|   |-3-|   |-6-|
D|-8-|x7- |-8-|x7 |-4-|x7 |-6-|x7
A|-6-|    |-8-|   |-4-|   |-4-|
E|---|    |-6-|   |-2-|   |---|
For the solo you are going to have to look at someone elseís tabs because I donít have the time to figure it out, and I have repeated the song on my cd player so many times that I think that playing it through that many more times might cause me to dislike stone sour. For these 
Reasons I will leave you find someone else, or yourself to figure the solo out.





Comments


Popular Stone Sour tabs & chords
Hesitate 2 Bass Tabs
Idle Hands 2 Bass Tabs
Orchids 4 Bass Tabs
Wicked Game Chords
3030-150 4 Tabs
Botherr Tabs
Hesitate Tabs
Take A Number 1 Tabs
Bother Ukulele
Bother 2 Ukulele


Song lyrics



↑ Back to top | Tablatures and chords are parodies/interpretations of the original songs. You may use it for private study, scholarship, research or language learning purposes only
© 2014 AZChords.com Contact us | Privacy policy | DMCA | Add/correct tabs | Request tabs | Top 50 tabs