>
 >
1st Person 1

1st Person 1 Guitar Tabs

Stone  Sour - 1st Person 1 chords, tabs, tablatures, lyrics

Guitar lessons | Add/correct | Request | Top 50 tabs Artists:  A B C D E F G H I J K L M N O P Q R S T U V W X Y Z 0-9

1st Person 1 Guitar Tabs – Stone Sour

CD, Sheet music, Poster

Do you like 1st Person 1? Share with your friends now
TabsTabs v2
#------------------------------------------------------------------------------##

                                   1ST PERSON
                            As recorded by Stone Sour
                    (From the 2006 Album COME WHAT(EVER) MAY)

Words and Music by Shawn Economaki, Josh Rand, Corey Taylor and James Root

Gtr I (Db Ab Db Gb Bb Eb) - 'Guitar 1'
Gtr II (Db Ab Db Gb Bb Eb) - 'Guitar 2'

 Verse 1
  Moderately Fast Q=153
  D5                           Eb5
 4/4
  Gtrs I, II
                               PM--------|
  E E E E H      S E S E E +E  S S S S S S
|--------------|---------------------------|
|--------------|---------------------------|
|--------------|---------------------------|
|-0-----0------|-0---0---0-(0)-------------|
|-0-----0------|-0---0---0-(0)-------------|
|-0-----0------|-0---0---0-(0)-1-1-1-1-1-1-|


  D5                           Eb5
                               PM--------|
  E E E E H      S E S E E +E  S S S S S S
|--------------|-----------------------------|
|--------------|-----------------------------|
|--------------|-----------------------------|
|-0-----0------|-0---0---0-(0)---------------|
|-0-----0------|-0---0---0-(0)---------------|
|-0-----0------|-0---0---0-(0)-1-1-1-1-1-1---|


  D5                           Eb5
  Gtr I
                               PM--------|
  E E E E H      S E S E E +E  S S S S S S
|--------------|---------------------------|
|--------------|---------------------------|
|--------------|---------------------------|
|-0-----0------|-0---0---0-(0)-------------|
|-0-----0------|-0---0---0-(0)-------------|
|-0-----0------|-0---0---0-(0)-1-1-1-1-1-1-|
|
| Gtr II
|                              PM--------|
| E E E E H      S E S E E +E  S S S S S S
|--------------|---------------------------|
|--------------|---------------------------|
|--------------|---------------------------|
|-0-----0------|-0---0---0-(0)-------------|
|-0-----0------|-0---0---0-(0)-------------|
|-0-----0------|-0---0---0-(0)-1-1-1-1-1-1-|


  D5                           Eb
                                PM------------|
  E E E E H      S E S E E +E   S  S  S  S  S  S
|--------------|-----------------------------------|
|--------------|-----------------------------------|
|--------------|---------------12-12-12-12-12-12S==|
|-0-----0------|-0---0---0-(0)--x--x--x--x--x--x---|
|-0-----0------|-0---0---0-(0)-10-10-10-10-10-10S==|
|-0-----0------|-0---0---0-(0)---------------------|
|
|                               PM------------|
| E E E E H      S E S E E +E   S  S  S  S  S  S
|--------------|-----------------------------------|
|--------------|-----------------------------------|
|--------------|-----------------------------------|
|-0-----0------|-0---0---0-(0)---------------------|
|-0-----0------|-0---0---0-(0)---------------------|
|-0-----0------|-0---0---0-(0)--1--1--1--1--1--1---|


  Dm     D5                     Eb
                                 PM------------|
   E E E E H      S E S E E +E   S  S  S  S  S  S
|---------------|---------------------------------|
|---------------|---------------------------------|
|-10-----7------|---------------12-12-12-12-12-12S|
|--x-----x------|-0---0---0-(0)--x--x--x--x--x--x-|
|--8-----5------|-0---0---0-(0)-10-10-10-10-10-10S|
|---------------|-0---0---0-(0)-------------------|
|
|                                PM------------|
|  E E E E H      S E S E E +E   S  S  S  S  S  S
|---------------|---------------------------------|
|---------------|---------------------------------|
|---------------|---------------------------------|
|--0-----0------|-0---0---0-(0)-------------------|
|--0-----0------|-0---0---0-(0)-------------------|
|--0-----0------|-0---0---0-(0)--1--1--1--1--1--1-|


  Dm     D5                     Eb
                                 PM------------|
   E E E E H      S E S E E +E   S  S  S  S  S  S
|---------------|----------------------------------|
|---------------|----------------------------------|
|-10-----7------|---------------12-12-12-12-12-12--|
|--x-----x------|-0---0---0-(0)--x--x--x--x--x--x--|
|--8-----5------|-0---0---0-(0)-10-10-10-10-10-10--|
|---------------|-0---0---0-(0)--------------------|
|
|                                PM------------|
|  E E E E H      S E S E E +E   S  S  S  S  S  S
|---------------|----------------------------------|
|---------------|----------------------------------|
|---------------|----------------------------------|
|--0-----0------|-0---0---0-(0)--------------------|
|--0-----0------|-0---0---0-(0)--------------------|
|--0-----0------|-0---0---0-(0)--1--1--1--1--1--1--|


  Dm     D5                     Eb
                                 PM------------|
   E E E E H      S E S E E +E   S  S  S  S  S  S
|---------------|---------------------------------|
|---------------|---------------------------------|
|-10-----7------|---------------12-12-12-12-12-12S|
|--x-----x------|-0---0---0-(0)--x--x--x--x--x--x-|
|--8-----5------|-0---0---0-(0)-10-10-10-10-10-10S|
|---------------|-0---0---0-(0)-------------------|
|
|                                PM------------|
|  E E E E H      S E S E E +E   S  S  S  S  S  S
|---------------|---------------------------------|
|---------------|---------------------------------|
|---------------|---------------------------------|
|--0-----0------|-0---0---0-(0)-------------------|
|--0-----0------|-0---0---0-(0)-------------------|
|--0-----0------|-0---0---0-(0)--1--1--1--1--1--1-|


  Dm     D5                     Eb
                                 PM------------|
   E E E E H      S E S E E +E   S  S  S  S  S  S
|---------------|----------------------------------|
|---------------|----------------------------------|
|-10-----7------|---------------12-12-12-12-12-12--|
|--x-----x------|-0---0---0-(0)--x--x--x--x--x--x--|
|--8-----5------|-0---0---0-(0)-10-10-10-10-10-10--|
|---------------|-0---0---0-(0)--------------------|
|
|                                PM------------|
|  E E E E H      S E S E E +E   S  S  S  S  S  S
|---------------|----------------------------------|
|---------------|----------------------------------|
|---------------|----------------------------------|
|--0-----0------|-0---0---0-(0)--------------------|
|--0-----0------|-0---0---0-(0)--------------------|
|--0-----0------|-0---0---0-(0)--1--1--1--1--1--1--|


    C5 D5      G5D5          Ab5 D5          AbD5      F5G5
    Gtrs I, II
       PM----|   PM--------|     PM--------|   PM----|
     E S S S S E S S S S S S E   S S S S S S E S S S S E E
||-----------------------------|-----------------------------|
||o----------------------------|-----------------------------|
||-----------------------------|-----------------------------|
||-----------------------------|-----------------------------|
||o----------------------------|-----------------------------|
||--10-0-0-0-0-5-0-0-0-0-0-0-6-|-0-0-0-0-0-0-6-0-0-0-0-3-5S==|


  C5 D5      G5D5          Ab5
  Gtr I
     PM----|   PM--------|
   E S S S S E S S S S S S E   +E  E    E E E    E E E
|----------------------------|----------------------------||
|----------------------------|---------------------------o||
|----------------------------|----------------------------||
|----------------------------|----------------------------||
|--------------------------6-|-(6)-6b7==6-6-6b8==6-6-6r/-o||
|-10-0-0-0-0-5-0-0-0-0-0-0---|----------------------------||
|
| Gtr II
|    PM----|   PM--------|
|  E S S S S E S S S S S S E   +E  E    E E E    E E E
|----------------------------|----------------------------||
|----------------------------|---------------------------o||
|----------------------------|----------------------------||
|----------------------------|----------------------------||
|----------------------------|---------------------------o||
|-10-0-0-0-0-5-0-0-0-0-0-0-6-|-(6)-6b7==6-6-6b8==6-6-6r/--||


 Pre-Chorus
  $
  D5   G5     D5   Eb5  G5     Eb5  F5   G5     F5   Eb5  G5     Eb5
  Gtrs I, II
  Q.   E +Q   Q    Q.   E +Q   Q    Q.   E +Q   Q    Q.   E +Q   Q
|----------------|----------------|----------------|----------------|
|----------------|----------------|----------------|----------------|
|----------------|----------------|----------------|----------------|
|----------------|----------------|----------------|----------------|
|-5-----------5--|-6-----------6--|-8-----------8--|-6-----------6--|
|------5-(5)-----|------5-(5)-----|------5-(5)-----|------5-(5)-----|


  $$
  D5   G5     D5   Eb5  G5     Eb5  F5         G5      F5    Eb5  G5     Eb5
  Gtr I
  Q.   E +Q   Q    Q.   E +Q   Q     Q.        E +Q     Q    Q.   E +Q   Q
|----------------|----------------|------------------------|----------------||
|----------------|----------------|------------------------|----------------||
|----------------|----------------|------------------------|----------------||
|----------------|----------------|------------------------|----------------||
|-5-----------5--|-6-----------6--|--8------------------8--|-6-----------6--||
|------5-(5)-----|------5-(5)-----|------------5-(5)-------|------5-(5)-----||
|
| Gtr II
| Q.   E +Q   Q    Q.   E +Q   Q     Q    +E   E +Q     Q    Q.   E +Q   Q
|----------------|----------------|------------------------|----------------||
|----------------|----------------|------------------------|----------------||
|----------------|----------------|------------------------|----------------||
|-7-----------7--|-8-----------8S=|=10---(10)\---------10S=|=8-----------8--||
|------5-(5)-----|------5-(5)-----|------------5-(5)/------|------5-(5)-----||
|----------------|----------------|------------------------|----------------||


   Chorus
    Eb5     D5  Eb5     D5    Eb5 D5  Eb5 D5  Ab5     F5  G5
    Gtrs I, II
    PM----|     PM----|       PM----------------------------|
    S S S S E E S S S S E E   S S S S S S S S S S S S S S S S
||--------------------------|----------------------------------||
||o-------------------------|---------------------------------o||
||--------------------------|----------------------------------||
||--------------------------|----------------------------------||
||o-------------------------|---------------------------------o||
||--1-1-1-1-0---1-1-1-1-0---|-1-1-0-0-1-1-0-0-6-6-6-6-3-3-5-5--||


                                                         To Coda
                                                         To Coda
    Eb5 D5  G5    Eb5 D5  G5      Eb5 D5  Eb5 D5  Ab5     F5  G5
    PM----|       PM----|         PM----------------------------|
    S S S S E +E  S S S S E +E    S S S S S S S S S S S S S S S S
||------------------------------|----------------------------------||
||o-----------------------------|---------------------------------o||
||------------------------------|----------------------------------||
||------------------------------|----------------------------------||
||o-----------------------------|---------------------------------o||
||--1-1-0-0-5-(5)S1-1-0-0-5-(5)S|=1-1-0-0-1-1-0-0-6-6-6-6-3-3-5-5--||


    Ab5  G5           Ab5C5    AbG5   Eb5  D5
    Gtr I
    Q  E E +H       E Q  E +E  E Q    Q.   E +H
||----------------|-----------------|---------------|
||o---------------|-----------------|---------------|
||----------------|-----------------|---------------|
||----------------|------5-(5)------|-8----7-(7)----|
||o---------------|-5-6--------6-5--|---------------|
||--6--6-5-(5)----|-----------------|---------------|
|
|   Gtr II
|   Q  E E +H       E Q  E +E  E Q    Q.   E +H
||----------------|-----------------|---------------|
||o---------------|-----------------|---------------|
||----------------|-----------------|---------------|
||----------------|-----------------|---------------|
||o---------------|------3-(3)------|-6----5-(5)----|
||--6--6-5-(5)----|-5-6--------6-5--|---------------|


  G5  Ab5 G5  D5  G5  F5  D5  G5
  PM----------------------------|
  S S S S S S S S S S S S S S S S     W
|----------------------------------||------||
|---------------------------------o||------||
|----------------------------------||------||
|----------------------------------||------||
|---------------------------------o||------||
|-5-5-6-6-5-5-0-0-5-5-3-3-0-0-5-5--||------||
|
| PM----------------------------|
| S S S S S S S S S S S S S S S S     W
|----------------------------------||------||
|---------------------------------o||------||
|----------------------------------||------||
|----------------------------------||------||
|---------------------------------o||------||
|-5-5-6-6-5-5-0-0-5-5-3-3-0-0-5-5--||------||


   Verse 2
    D5                           Eb5
    Gtrs I, II
                                 PM--------|
    E E E E H      S E S E E +E  S S S S S S
||---------------|---------------------------|
||o--------------|---------------------------|
||---------------|---------------------------|
||--0-----0------|-0---0---0-(0)-------------|
||o-0-----0------|-0---0---0-(0)-------------|
||--0-----0------|-0---0---0-(0)-1-1-1-1-1-1-|


  D5                           Eb5
                               PM--------|
  E E E E H      S E S E E +E  S S S S S S
|--------------|----------------------------||
|--------------|---------------------------o||
|--------------|----------------------------||
|-0-----0------|-0---0---0-(0)--------------||
|-0-----0------|-0---0---0-(0)-------------o||
|-0-----0------|-0---0---0-(0)-1-1-1-1-1-1--||


  D5                                    Eb
  Gtr I
                                         PM------------|
  E E E  E  +Q    +Q      S E S E E +E   S  S  S  S  S  S
|-----------------------|---------------------------------|
|-----------------------|---------------------------------|
|-----------------------|---------------12-12-12-12-12-12S|
|-0-----12-(12)--(12)\--|-0---0---0-(0)--x--x--x--x--x--x-|
|-0-----12-(12)--(12)\--|-0---0---0-(0)-10-10-10-10-10-10S|
|-0-----12-(12)--(12)\--|-0---0---0-(0)-------------------|
|
| Gtr II
|                                        PM------------|
| E E E  E  +Q    +Q      S E S E E +E   S  S  S  S  S  S
|-----------------------|---------------------------------|
|-----------------------|---------------------------------|
|-----------------------|---------------------------------|
|-0-----12-(12)--(12)\--|-0---0---0-(0)-------------------|
|-0-----12-(12)--(12)\--|-0---0---0-(0)-------------------|
|-0-----12-(12)--(12)\--|-0---0---0-(0)--1--1--1--1--1--1-|


  D5                            Eb
                                 PM------------|
   E E E E H      S E S E E +E   S  S  S  S  S  S
|---------------|-----------------------------------|
|---------------|-----------------------------------|
|-10-----7------|---------------12-12-12-12-12-12S==|
|--x-----x------|-0---0---0-(0)--x--x--x--x--x--x---|
|--8-----5------|-0---0---0-(0)-10-10-10-10-10-10S==|
|---------------|-0---0---0-(0)---------------------|
|
|                                PM------------|
|  E E E E H      S E S E E +E   S  S  S  S  S  S
|---------------|-----------------------------------|
|---------------|-----------------------------------|
|---------------|-----------------------------------|
|--0-----0------|-0---0---0-(0)---------------------|
|--0-----0------|-0---0---0-(0)---------------------|
|--0-----0------|-0---0---0-(0)--1--1--1--1--1--1---|


  Dm     D5                     Eb
                                 PM------------|
   E E E E H      S E S E E +E   S  S  S  S  S  S
|---------------|---------------------------------|
|---------------|---------------------------------|
|-10-----7------|---------------12-12-12-12-12-12S|
|--x-----x------|-0---0---0-(0)--x--x--x--x--x--x-|
|--8-----5------|-0---0---0-(0)-10-10-10-10-10-10S|
|---------------|-0---0---0-(0)-------------------|
|
|                                PM------------|
|  E E E E H      S E S E E +E   S  S  S  S  S  S
|---------------|---------------------------------|
|---------------|---------------------------------|
|---------------|---------------------------------|
|--0-----0------|-0---0---0-(0)-------------------|
|--0-----0------|-0---0---0-(0)-------------------|
|--0-----0------|-0---0---0-(0)--1--1--1--1--1--1-|


  Dm     D5                     Eb
                                 PM------------|
   E E E E H      S E S E E +E   S  S  S  S  S  S
|---------------|----------------------------------|
|---------------|----------------------------------|
|-10-----7------|---------------12-12-12-12-12-12--|
|--x-----x------|-0---0---0-(0)--x--x--x--x--x--x--|
|--8-----5------|-0---0---0-(0)-10-10-10-10-10-10--|
|---------------|-0---0---0-(0)--------------------|
|
|                                PM------------|
|  E E E E H      S E S E E +E   S  S  S  S  S  S
|---------------|----------------------------------|
|---------------|----------------------------------|
|---------------|----------------------------------|
|--0-----0------|-0---0---0-(0)--------------------|
|--0-----0------|-0---0---0-(0)--------------------|
|--0-----0------|-0---0---0-(0)--1--1--1--1--1--1--|


    C5 D5      G5D5          Ab5 D5          AbD5      F5G5
    Gtrs I, II
       PM----|   PM--------|     PM--------|   PM----|
     E S S S S E S S S S S S E   S S S S S S E S S S S E E
||-----------------------------|-----------------------------|
||o----------------------------|-----------------------------|
||-----------------------------|-----------------------------|
||-----------------------------|-----------------------------|
||o----------------------------|-----------------------------|
||--10-0-0-0-0-5-0-0-0-0-0-0-6-|-0-0-0-0-0-0-6-0-0-0-0-3-5S==|


                                         D.S. al Coda
  C5 D5      G5D5          Ab5
  Gtr I
     PM----|   PM--------|
   E S S S S E S S S S S S E   +E  E    E E E    E E E
|----------------------------|----------------------------||
|----------------------------|---------------------------o||
|----------------------------|----------------------------||
|----------------------------|----------------------------||
|--------------------------6-|-(6)-6b7==6-6-6b8==6-6-6r/-o||
|-10-0-0-0-0-5-0-0-0-0-0-0---|----------------------------||
|
| Gtr II
|    PM----|   PM--------|
|  E S S S S E S S S S S S E   +E  E    E E E    E E E
|----------------------------|----------------------------||
|----------------------------|---------------------------o||
|----------------------------|----------------------------||
|----------------------------|----------------------------||
|----------------------------|---------------------------o||
|-10-0-0-0-0-5-0-0-0-0-0-0-6-|-(6)-6b7==6-6-6b8==6-6-6r/--||


    &
    Ab5  G5           Ab5C5    AbG5   Eb5  D5
    Gtr I
    Q  E E +H       E Q  E +E  E Q    Q.   E +H
||----------------|-----------------|--------------|
||o---------------|-----------------|--------------|
||----------------|-----------------|--------------|
||----------------|------5-(5)------|-8----7-(7)---|
||o---------------|-5-6--------6-5--|--------------|
||--6--6-5-(5)----|-----------------|--------------|
|
|   Gtr II
|   Q  E E +H       E Q  E +E  E Q    Q.   E +H
||----------------|-----------------|--------------|
||o---------------|-----------------|--------------|
||----------------|-----------------|--------------|
||----------------|-----------------|--------------|
||o---------------|------3-(3)------|-6----5-(5)---|
||--6--6-5-(5)----|-5-6--------6-5--|--------------|


  1.                                 2.
  G5  Ab5 G5  D5  G5  F5  D5  G5      G5AbG5D5G5F5D5G5
  PM------------------------------------------------|
  S S S S S S S S S S S S S S S S     E E E E E E E E
|----------------------------------||-----------------||
|---------------------------------o||-----------------||
|----------------------------------||-----------------||
|----------------------------------||-----------------||
|---------------------------------o||-5-6-5-0-5-3-0-5-||
|-5-5-6-6-5-5-0-0-5-5-3-3-0-0-5-5--||-5-6-5-0-5-3-0-5-||
|
| PM------------------------------------------------|
| S S S S S S S S S S S S S S S S     E E E E E E E E
|----------------------------------||-----------------||
|---------------------------------o||-----------------||
|----------------------------------||-----------------||
|----------------------------------||-----------------||
|---------------------------------o||-5-6-5-0-5-3-0-5-||
|-5-5-6-6-5-5-0-0-5-5-3-3-0-0-5-5--||-5-6-5-0-5-3-0-5-||


   Interlude
    F5D5          F5  D5F5D5
    Gtrs I, II
      PM|   PM--|     PM  PM|   PM--|
    E E E E E E E E   E E E E E E E E
||------------------|-----------------|
||o-----------------|-----------------|
||------------------|-----------------|
||------------------|-----------------|
||o-3-0-0-0-0-0-0-3-|-0-3-0-0-0-0-0-0-|
||--3-0-0-0-0-0-0-3-|-0-3-0-0-0-0-0-0-|


  F5D5          EbF5   Eb5
    PM|   PM--|
  E E E E E E E S  S   E E    E E E     E E E
|--------------------|---------------------------||
|--------------------|--------------------------o||
|--------------------|---------------------------||
|---------------8s10-|-8-8b9==8-8-8b10==8-8-8\---||
|-3-0-0-0-0-0-0-6s=8-|-6-6b7==6-6-6b8===6-6-6r\-o||
|-3-0-0-0-0-0-0------|---------------------------||


 Pre-Chorus
                                                D.S.S. al Dbl. Coda
  Dm   G5     Dm   Eb   G5          F    G5     F    Eb   G5     Eb
  Gtr I
  Q.   E +Q   Q    Q.   E +Q   Q    Q.   E +Q   Q    Q.   E +Q   Q
|----------------|----------------|----------------|----------------||
|----------------|----------------|----------------|----------------||
|----------------|----------------|----------------|----------------||
|----------------|-5-----------5--|-7-----------7--|-5-----------5--||
|-8-----------8--|----------------|----------------|----------------||
|------5-(5)-----|------5-(5)-----|------5-(5)-----|------5-(5)-----||
|
| Gtr II
| Q.   E +Q   Q    Q.   E +Q   Q    Q.   E +Q   Q    Q.   E +Q   Q
|----------------|----------------|----------------|----------------||
|----------------|----------------|----------------|----------------||
|----------------|----------------|----------------|----------------||
|----------------|----------------|----------------|----------------||
|-5-----------5--|-6-----------6--|-8-----------8--|-6-----------6--||
|------5-(5)-----|------5-(5)-----|------5-(5)-----|------5-(5)-----||


    &&
    Ab5  G5           Ab5C5    AbG5
    Gtr I
    Q  E E +H       E Q  E +E  E Q
||----------------|-----------------|
||o---------------|-----------------|
||----------------|-----------------|
||----------------|------5-(5)------|
||o---------------|-5-6--------6-5--|
||--6--6-5-(5)----|-----------------|
|
|   Gtr II
|   Q  E E +H       E Q  E +E  E Q
||----------------|-----------------|
||o---------------|-----------------|
||----------------|-----------------|
||----------------|-----------------|
||o---------------|------3-(3)------|
||--6--6-5-(5)----|-5-6--------6-5--|


  Eb5  D5         G5  Ab5 G5  D5  G5  F5  D5  G5
                  PM----------------------------|
  Q.   E +H       S S S S S S S S S S S S S S S S
|---------------|----------------------------------||
|---------------|---------------------------------o||
|---------------|----------------------------------||
|-8----7-(7)----|----------------------------------||
|---------------|---------------------------------o||
|---------------|-5-5-6-6-5-5-0-0-5-5-3-3-0-0-5-5--||
|
|                 PM----------------------------|
| Q.   E +H       S S S S S S S S S S S S S S S S
|---------------|----------------------------------||
|---------------|---------------------------------o||
|---------------|----------------------------------||
|---------------|----------------------------------||
|-6----5-(5)----|---------------------------------o||
|---------------|-5-5-6-6-5-5-0-0-5-5-3-3-0-0-5-5--||


 Outro-Verse
  D5                           Eb
  Gtrs I, II
                               PM--------|
  E E E E H      S E S E E +E  S S S S S S
|--------------|---------------------------|
|--------------|---------------------------|
|--------------|---------------------------|
|-0-----0------|-0---0---0-(0)-------------|
|-0-----0------|-0---0---0-(0)-------------|
|-0-----0------|-0---0---0-(0)-1-1-1-1-1-1-|


  D5                           Eb
                               PM--------|
  E E E E H      S E S E E +E  S S S S S S
|--------------|----------------------------|
|--------------|----------------------------|
|--------------|----------------------------|
|-0-----0------|-0---0---0-(0)--------------|
|-0-----0------|-0---0---0-(0)--------------|
|-0-----0------|-0---0---0-(0)-1-1-1-1-1-1--|


  D5                           Eb5
  Gtr I
                               PM--------|
  E E E E H      S E S E E +E  S S S S S S
|--------------|---------------------------|
|--------------|---------------------------|
|--------------|---------------------------|
|-0-----0------|-0---0---0-(0)-------------|
|-0-----0------|-0---0---0-(0)-------------|
|-0-----0------|-0---0---0-(0)-1-1-1-1-1-1-|
|
| Gtr II
|                              PM--------|
| E E E E H      S E S E E +E  S S S S S S
|--------------|---------------------------|
|--------------|---------------------------|
|--------------|---------------------------|
|-0-----0------|-0---0---0-(0)-------------|
|-0-----0------|-0---0---0-(0)-------------|
|-0-----0------|-0---0---0-(0)-1-1-1-1-1-1-|


  D5                           Eb
                                PM------------|
  E E E E H      S E S E E +E   S  S  S  S  S  S
|--------------|-----------------------------------|
|--------------|-----------------------------------|
|--------------|---------------12-12-12-12-12-12S==|
|-0-----0------|-0---0---0-(0)--x--x--x--x--x--x---|
|-0-----0------|-0---0---0-(0)-10-10-10-10-10-10S==|
|-0-----0------|-0---0---0-(0)---------------------|
|
|                               PM------------|
| E E E E H      S E S E E +E   S  S  S  S  S  S
|--------------|-----------------------------------|
|--------------|-----------------------------------|
|--------------|-----------------------------------|
|-0-----0------|-0---0---0-(0)---------------------|
|-0-----0------|-0---0---0-(0)---------------------|
|-0-----0------|-0---0---0-(0)--1--1--1--1--1--1---|


  Dm     D5                     Eb
                                 PM------------|
   E E E E H      S E S E E +E   S  S  S  S  S  S
|---------------|---------------------------------|
|---------------|---------------------------------|
|-10-----7------|---------------12-12-12-12-12-12S|
|--x-----x------|-0---0---0-(0)--x--x--x--x--x--x-|
|--8-----5------|-0---0---0-(0)-10-10-10-10-10-10S|
|---------------|-0---0---0-(0)-------------------|
|
|                                PM------------|
|  E E E E H      S E S E E +E   S  S  S  S  S  S
|---------------|---------------------------------|
|---------------|---------------------------------|
|---------------|---------------------------------|
|--0-----0------|-0---0---0-(0)-------------------|
|--0-----0------|-0---0---0-(0)-------------------|
|--0-----0------|-0---0---0-(0)--1--1--1--1--1--1-|


  Dm     D5                     Eb
                                 PM------------|
   E E E E H      S E S E E +E   S  S  S  S  S  S
|---------------|----------------------------------|
|---------------|----------------------------------|
|-10-----7------|---------------12-12-12-12-12-12--|
|--x-----x------|-0---0---0-(0)--x--x--x--x--x--x--|
|--8-----5------|-0---0---0-(0)-10-10-10-10-10-10--|
|---------------|-0---0---0-(0)--------------------|
|
|                                PM------------|
|  E E E E H      S E S E E +E   S  S  S  S  S  S
|---------------|----------------------------------|
|---------------|----------------------------------|
|---------------|----------------------------------|
|--0-----0------|-0---0---0-(0)--------------------|
|--0-----0------|-0---0---0-(0)--------------------|
|--0-----0------|-0---0---0-(0)--1--1--1--1--1--1--|


  Dm     D5                     Eb
                                 PM------------|
   E E E E H      S E S E E +E   S  S  S  S  S  S
|---------------|---------------------------------|
|---------------|---------------------------------|
|-10-----7------|---------------12-12-12-12-12-12S|
|--x-----x------|-0---0---0-(0)--x--x--x--x--x--x-|
|--8-----5------|-0---0---0-(0)-10-10-10-10-10-10S|
|---------------|-0---0---0-(0)-------------------|
|
|                                PM------------|
|  E E E E H      S E S E E +E   S  S  S  S  S  S
|---------------|---------------------------------|
|---------------|---------------------------------|
|---------------|---------------------------------|
|--0-----0------|-0---0---0-(0)-------------------|
|--0-----0------|-0---0---0-(0)-------------------|
|--0-----0------|-0---0---0-(0)--1--1--1--1--1--1-|


  Dm     D5                 N.C.
   E E E E H      S E S E E H
|---------------|----------------*|
|---------------|----------------*|
|-10-----7------|----------------*|
|--x-----x------|-0---0---0------*|
|--8-----5------|-0---0---0------*|
|---------------|-0---0---0------*|
|
|  E E E E H      S E S E E H
|---------------|----------------*|
|---------------|----------------*|
|---------------|----------------*|
|--0-----0------|-0---0---0------*|
|--0-----0------|-0---0---0------*|
|--0-----0------|-0---0---0------*|


Duration Legend
---------------
W - whole; H - half; Q - quarter; E - 8th; S - 16th; T - 32nd; X - 64th; a - acciaccatura
+ - note tied to previous; . - note dotted; .. - note double dotted
Uncapitalized letters represent notes that are staccato (1/2 duration)
Irregular groupings are notated above the duration line
Duration letters will always appear directly above the note/fret number it represents the
duration for.  Duration letters with no fret number below them represent rests.  Multi-
bar rests are notated in the form Wxn, where n is the number of bars to rest for.  Low
melody durations appear below the staff

Tablature Legend
----------------
 h   - hammer-on
 p   - pull-off
 b   - bend
 pb  - pre-bend
 r   - bend release (if no number after the r, then release immediately)
 /\  - slide into or out of (from/to "nowhere")
 s   - legato slide
 S   - shift slide
  - natural harmonic
[n]  - artificial harmonic
n(n) - tapped harmonic
 ~   - vibrato
 tr  - trill
 T   - tap
 TP  - trem. picking
 PM  - palm muting
\n/  - tremolo bar dip; n = amount to dip
 \n  - tremolo bar down
 n/  - tremolo bar up
/n\  - tremolo bar inverted dip
 =   - hold bend; also acts as connecting device for hammers/pulls
 <>  - volume swell (louder/softer)
 x   - on rhythm slash represents muted slash
 o   - on rhythm slash represents single note slash

Misc Legend
-----------
 |  - bar
||  - double bar
||o - repeat start
o|| - repeat end
*|  - double bar (ending)
 :  - bar (freetime)
 $  - Segno
 &  - Coda
Tempo markers -  = BPM(8/16=s8/s16), where s8 = swing 8ths, s16 = swing 16ths


***************************************************************************************
***************************************************************************************





Comments


Popular Stone Sour tabs & chords
Come Whatever May Bass Tabs
Come Whatever May 2 Bass Tabs
Digital (Did You Tell) Bass Tabs
Socio 2 Bass Tabs
Dying 1 Chords
Bother 11 Tabs
Bother 3 Tabs
Unfinished Intro Tabs
Do Me A Favor Ukulele
Through Glass Ukulele


Song lyrics



↑ Back to top | Tablatures and chords are parodies/interpretations of the original songs. You may use it for private study, scholarship, research or language learning purposes only
© 2014 AZChords.com Contact us | Privacy policy | DMCA | Add/correct tabs | Request tabs | Top 50 tabs