» » »

Stone Sour, 1st Person Tabs (ver.1)

Artists:  A B C D E F G H I J K L M N O P Q R S T U V W X Y Z # 

1st Person Tabs (ver.1)

Stone Sour Tabs
Rating:
0/5 (0 votes)
Hard to play? Try these video lessons and learn fast.
                
1ST PERSON
As recorded by Stone Sour
(From the 2006 Album COME WHAT(EVER) MAY)



Words and Music by Shawn Economaki, Josh Rand, Corey Taylor, and James Root

Gtr I (Db Ab Db Gb Bb Eb) - 'James Root'
Gtr II (Db Ab Db Gb Bb Eb) - 'Josh Rand'

    Q=153
    D5                           Eb5
   4/4
    Gtrs I, II
    E E E E H      S E S E E +E  S S S S S S
||---------------|---------------------------|
||o--------------|---------------------------|
||---------------|---------------------------|
||--0-----0------|-0---0---0-(0)-------------|
||o-0-----0------|-0---0---0-(0)-------------|
||--0-----0------|-0---0---0-(0)-1-1-1-1-1-1-|


  D5                           Eb5
  E E E E H      S E S E E +E  S S S S S S
|--------------|----------------------------|
|--------------|----------------------------|
|--------------|----------------------------|
|-0-----0------|-0---0---0-(0)--------------|
|-0-----0------|-0---0---0-(0)--------------|
|-0-----0------|-0---0---0-(0)-1-1-1-1-1-1--|


  D5                           Eb5
  Gtr I
  E E E E H      S E S E E +E  S S S S S S
|--------------|---------------------------|
|--------------|---------------------------|
|--------------|---------------------------|
|-0-----0------|-0---0---0-(0)-------------|
|-0-----0------|-0---0---0-(0)-------------|
|-0-----0------|-0---0---0-(0)-1-1-1-1-1-1-|
|
| Gtr II
| E E E E H      S E S E E +E  S S S S S S
|--------------|---------------------------|
|--------------|---------------------------|
|--------------|---------------------------|
|-0-----0------|-0---0---0-(0)-------------|
|-0-----0------|-0---0---0-(0)-------------|
|-0-----0------|-0---0---0-(0)-1-1-1-1-1-1-|


  D5                           Eb
  E E E E H      S E S E E +E   S  S  S  S  S  S
|--------------|-----------------------------------|
|--------------|-----------------------------------|
|--------------|---------------12-12-12-12-12-12S==|
|-0-----0------|-0---0---0-(0)--x--x--x--x--x--x---|
|-0-----0------|-0---0---0-(0)-10-10-10-10-10-10S==|
|-0-----0------|-0---0---0-(0)---------------------|
|
| E E E E H      S E S E E +E   S  S  S  S  S  S
|--------------|-----------------------------------|
|--------------|-----------------------------------|
|--------------|-----------------------------------|
|-0-----0------|-0---0---0-(0)---------------------|
|-0-----0------|-0---0---0-(0)---------------------|
|-0-----0------|-0---0---0-(0)--1--1--1--1--1--1---|


  Dm     D5                     Eb
   E E E E H      S E S E E +E   S  S  S  S  S  S
|---------------|---------------------------------|
|---------------|---------------------------------|
|-10-----7------|---------------12-12-12-12-12-12S|
|--x-----x------|-0---0---0-(0)--x--x--x--x--x--x-|
|--8-----5------|-0---0---0-(0)-10-10-10-10-10-10S|
|---------------|-0---0---0-(0)-------------------|
|
|  E E E E H      S E S E E +E   S  S  S  S  S  S
|---------------|---------------------------------|
|---------------|---------------------------------|
|---------------|---------------------------------|
|--0-----0------|-0---0---0-(0)-------------------|
|--0-----0------|-0---0---0-(0)-------------------|
|--0-----0------|-0---0---0-(0)--1--1--1--1--1--1-|


  Dm     D5                     Eb
   E E E E H      S E S E E +E   S  S  S  S  S  S
|---------------|-----------------------------------|
|---------------|-----------------------------------|
|-10-----7------|---------------12-12-12-12-12-12S==|
|--x-----x------|-0---0---0-(0)--x--x--x--x--x--x---|
|--8-----5------|-0---0---0-(0)-10-10-10-10-10-10S==|
|---------------|-0---0---0-(0)---------------------|
|
|  E E E E H      S E S E E +E   S  S  S  S  S  S
|---------------|-----------------------------------|
|---------------|-----------------------------------|
|---------------|-----------------------------------|
|--0-----0------|-0---0---0-(0)---------------------|
|--0-----0------|-0---0---0-(0)---------------------|
|--0-----0------|-0---0---0-(0)--1--1--1--1--1--1---|


  Dm     D5                     Eb
   E E E E H      S E S E E +E   S  S  S  S  S  S
|---------------|---------------------------------|
|---------------|---------------------------------|
|-10-----7------|---------------12-12-12-12-12-12S|
|--x-----x------|-0---0---0-(0)--x--x--x--x--x--x-|
|--8-----5------|-0---0---0-(0)-10-10-10-10-10-10S|
|---------------|-0---0---0-(0)-------------------|
|
|  E E E E H      S E S E E +E   S  S  S  S  S  S
|---------------|---------------------------------|
|---------------|---------------------------------|
|---------------|---------------------------------|
|--0-----0------|-0---0---0-(0)-------------------|
|--0-----0------|-0---0---0-(0)-------------------|
|--0-----0------|-0---0---0-(0)--1--1--1--1--1--1-|


  Dm     D5                     Eb
   E E E E H      S E S E E +E   S  S  S  S  S  S
|---------------|-----------------------------------|
|---------------|-----------------------------------|
|-10-----7------|---------------12-12-12-12-12-12S==|
|--x-----x------|-0---0---0-(0)--x--x--x--x--x--x---|
|--8-----5------|-0---0---0-(0)-10-10-10-10-10-10S==|
|---------------|-0---0---0-(0)---------------------|
|
|  E E E E H      S E S E E +E   S  S  S  S  S  S
|---------------|-----------------------------------|
|---------------|-----------------------------------|
|---------------|-----------------------------------|
|--0-----0------|-0---0---0-(0)---------------------|
|--0-----0------|-0---0---0-(0)---------------------|
|--0-----0------|-0---0---0-(0)--1--1--1--1--1--1---|


  Dm                            Eb
   E E E E H      S E S E E +E   S  S  S  S  S  S
|---------------|---------------------------------|
|---------------|---------------------------------|
|-10-----7------|---------------12-12-12-12-12-12S|
|--x-----x------|-0---0---0-(0)--x--x--x--x--x--x-|
|--8-----5------|-0---0---0-(0)-10-10-10-10-10-10S|
|---------------|-0---0---0-(0)-------------------|
|
|  E E E E H      S E S E E +E   S  S  S  S  S  S
|---------------|---------------------------------|
|---------------|---------------------------------|
|---------------|---------------------------------|
|--0-----0------|-0---0---0-(0)-------------------|
|--0-----0------|-0---0---0-(0)-------------------|
|--0-----0------|-0---0---0-(0)--1--1--1--1--1--1-|


  Dm     D5                     Eb
   E E E E H      S E S E E +E   S  S  S  S  S  S
|---------------|----------------------------------|
|---------------|----------------------------------|
|-10-----7------|---------------12-12-12-12-12-12--|
|--x-----x------|-0---0---0-(0)--x--x--x--x--x--x--|
|--8-----5------|-0---0---0-(0)-10-10-10-10-10-10--|
|---------------|-0---0---0-(0)--------------------|
|
|  E E E E H      S E S E E +E   S  S  S  S  S  S
|---------------|----------------------------------|
|---------------|----------------------------------|
|---------------|----------------------------------|
|--0-----0------|-0---0---0-(0)--------------------|
|--0-----0------|-0---0---0-(0)--------------------|
|--0-----0------|-0---0---0-(0)--1--1--1--1--1--1--|


  C5 D5      G5D5          Ab5 D5          Ab5       F5G5
     PM----|   PM--------|     PM--------|   PM----|
   E S S S S E S S S S S S E   S S S S S S E S S S S E E
|----------------------------|---------------------------|
|----------------------------|---------------------------|
|----------------------------|---------------------------|
|----------------------------|---------------------------|
|----------------------------|---------------------------|
|-10-0-0-0-0-5-0-0-0-0-0-0-6-|-0-0-0-0-0-0-6-0-0-0-0-3-5S|
|
|    PM----|   PM--------|     PM--------|   PM----|
|  E S S S S E S S S S S S E   S S S S S S E S S S S E E
|----------------------------|---------------------------|
|----------------------------|---------------------------|
|----------------------------|---------------------------|
|----------------------------|---------------------------|
|----------------------------|---------------------------|
|-10-0-0-0-0-5-0-0-0-0-0-0-6-|-0-0-0-0-0-0-6-0-0-0-0-3-5S|


  C5 D5      G5D5          Ab5
     PM----|   PM--------|
   E S S S S E S S S S S S E   +E  E    E E E    E E E
|----------------------------|---------------------------|
|----------------------------|---------------------------|
|----------------------------|---------------------------|
|----------------------------|---------------------------|
|--------------------------6-|-(6)-6b7==6-6-6b7==6-6-6r/-|
|-10-0-0-0-0-5-0-0-0-0-0-0---|---------------------------|
|
|    PM----|   PM--------|
|  E S S S S E S S S S S S E   +E  E    E E E    E E E
|----------------------------|---------------------------|
|----------------------------|---------------------------|
|----------------------------|---------------------------|
|----------------------------|---------------------------|
|----------------------------|---------------------------|
|-10-0-0-0-0-5-0-0-0-0-0-0-6-|-(6)-6b7==6-6-6b7==6-6-6rS=|


  C5 D5      G5D5          Ab5 D5          Ab5       F5G5
     PM----|   PM--------|     PM--------|   PM----|
   E S S S S E S S S S S S E   S S S S S S E S S S S E E
|----------------------------|---------------------------|
|----------------------------|---------------------------|
|----------------------------|---------------------------|
|----------------------------|---------------------------|
|----------------------------|---------------------------|
|-10-0-0-0-0-5-0-0-0-0-0-0-6-|-0-0-0-0-0-0-6-0-0-0-0-3-5S|
|
|    PM----|   PM--------|     PM--------|   PM----|
|  E S S S S E S S S S S S E   S S S S S S E S S S S E E
|----------------------------|---------------------------|
|----------------------------|---------------------------|
|----------------------------|---------------------------|
|----------------------------|---------------------------|
|----------------------------|---------------------------|
|-10-0-0-0-0-5-0-0-0-0-0-0-6-|-0-0-0-0-0-0-6-0-0-0-0-3-5S|


  C5 D5      G5D5          Ab5
     PM----|   PM--------|
   E S S S S E S S S S S S E   +E  E    E E E    E E E
|----------------------------|--------------------------||
|----------------------------|--------------------------||
|----------------------------|--------------------------||
|----------------------------|--------------------------||
|--------------------------6-|-(6)-6b7==6-6-6b7==6-6-6r-||
|-10-0-0-0-0-5-0-0-0-0-0-0---|--------------------------||
|
|    PM----|   PM--------|
|  E S S S S E S S S S S S E   +E  E    E E E    E E E
|----------------------------|--------------------------||
|----------------------------|--------------------------||
|----------------------------|--------------------------||
|----------------------------|--------------------------||
|----------------------------|--------------------------||
|-10-0-0-0-0-5-0-0-0-0-0-0-6-|-(6)-6b7==6-6-6b7==6-6-6r-||


  D5   G5     D5   Eb5  G5     Eb5  F5   G5     F5   Eb5  G5     Eb5
  Q.   E +Q   Q    Q.   E +Q   Q    Q.   E +Q   Q    Q.   E +Q   Q
|----------------|----------------|----------------|----------------|
|----------------|----------------|----------------|----------------|
|----------------|----------------|----------------|----------------|
|----------------|----------------|----------------|----------------|
|-5-----------5--|-6-----------6--|-8-----------8--|-6-----------6--|
|------5-(5)-----|------5-(5)-----|------5-(5)-----|------5-(5)-----|
|
| Q.   E +Q   Q    Q.   E +Q   Q    Q.   E +Q   Q    Q.   E +Q   Q
|----------------|----------------|----------------|----------------|
|----------------|----------------|----------------|----------------|
|----------------|----------------|----------------|----------------|
|----------------|----------------|----------------|----------------|
|-5-----------5--|-6-----------6--|-8-----------8--|-6-----------6--|
|------5-(5)-----|------5-(5)-----|------5-(5)-----|------5-(5)-----|


  $
  D5   G5     D5   Eb5  G5     Eb5  F5         G5      F5    Eb5  G5     Eb5
  Q.   E +Q   Q    Q.   E +Q   Q     Q    +E   E +Q     Q    Q.   E +Q   Q
|----------------|----------------|------------------------|-----------------||
|----------------|----------------|------------------------|-----------------||
|----------------|----------------|------------------------|-----------------||
|-7-----------7--|-8-----------8S=|=10---(10)\---------10S=|=8-----------8\--||
|------5-(5)-----|------5-(5)-----|------------5-(5)/------|------5-(5)------||
|----------------|----------------|------------------------|-----------------||
|
| Q.   E +Q   Q    Q.   E +Q   Q     Q.        E +Q     Q    Q.   E +Q   Q
|----------------|----------------|------------------------|-----------------||
|----------------|----------------|------------------------|-----------------||
|----------------|----------------|------------------------|-----------------||
|----------------|----------------|------------------------|-----------------||
|-5-----------5--|-6-----------6--|--8------------------8--|-6-----------6\--||
|------5-(5)-----|------5-(5)-----|------------5-(5)-------|------5-(5)------||


  Eb5     D5  Eb5     D5    Eb5 D5  Eb5 D5  Ab5     F5  G5
  Gtrs I, II
  PM----|     PM----|       PM-------------------------------
  S S S S E E S S S S E E   S S S S S S S S S S S S S S S S
|-------------------------|---------------------------------|
|-------------------------|---------------------------------|
|-------------------------|---------------------------------|
|-------------------------|---------------------------------|
|-------------------------|---------------------------------|
|-1-1-1-1-0---1-1-1-1-0---|-1-1-0-0-1-1-0-0-6-6-6-6-3-3-5-5-|


  Eb5     D5  Eb5     D5    Eb5 D5  Eb5 D5  Ab5     F5  G5
 -------|     PM----|       PM----------------------------|
  S S S S E E S S S S E E   S S S S S S S S S S S S S S S S
|-------------------------|---------------------------------|
|-------------------------|---------------------------------|
|-------------------------|---------------------------------|
|-------------------------|---------------------------------|
|-------------------------|---------------------------------|
|-1-1-1-1-0---1-1-1-1-0---|-1-1-0-0-1-1-0-0-6-6-6-6-3-3-5-5-|


  Eb5 D5  G5    Eb5 D5  G5      Eb5 D5  Eb5 D5  Ab5     F5  G5
  PM----|       PM------|       PM-------------------------------
  S S S S E +E  S S S S E +E    S S S S S S S S S S S S S S S S
|-----------------------------|---------------------------------|
|-----------------------------|---------------------------------|
|-----------------------------|---------------------------------|
|-----------------------------|---------------------------------|
|-----------------------------|---------------------------------|
|-1-1-0-0-5-(5)S1-1-0-0-5-(5)S|=1-1-0-0-1-1-0-0-6-6-6-6-3-3-5-5-|


  Eb5 D5  G5    Eb5 D5  G5      Eb5 D5  Eb5 D5  Ab5     F5  G5
 -------|       PM------|       PM----------------------------|
  S S S S E +E  S S S S E +E    S S S S S S S S S S S S S S S S
|-----------------------------|---------------------------------|
|-----------------------------|---------------------------------|
|-----------------------------|---------------------------------|
|-----------------------------|---------------------------------|
|-----------------------------|---------------------------------|
|-1-1-0-0-5-(5)S1-1-0-0-5-(5)S|=1-1-0-0-1-1-0-0-6-6-6-6-3-3-5-5-|


  Ab5  G5           Ab5C5    AbG5   Eb5  D5
  Gtr I
  Q  E E +H       E Q  E +E  E Q    Q.   E +H
|---------------|-----------------|---------------|
|---------------|-----------------|---------------|
|---------------|-----------------|---------------|
|---------------|------5-(5)------|-8----7-(7)----|
|---------------|-5-6--------6-5--|---------------|
|-6--6-5-(5)----|-----------------|---------------|
|
| Gtr II
| Q  E E +H       E Q  E +E  E Q    Q.   E +H
|---------------|-----------------|---------------|
|---------------|-----------------|---------------|
|---------------|-----------------|---------------|
|---------------|-----------------|---------------|
|---------------|------3-(3)------|-6----5-(5)----|
|-6--6-5-(5)----|-5-6--------6-5--|---------------|


  G5  Ab5 G5  D5  G5  F5  D5  G5
  PM----------------------------|
  S S S S S S S S S S S S S S S S
|----------------------------------|
|----------------------------------|
|----------------------------------|
|----------------------------------|
|----------------------------------|
|-5-5-6-6-5-5-0-0-5-5-3-3-0-0-5-5--|
|
| PM----------------------------|
| S S S S S S S S S S S S S S S S
|----------------------------------|
|----------------------------------|
|----------------------------------|
|----------------------------------|
|----------------------------------|
|-5-5-6-6-5-5-0-0-5-5-3-3-0-0-5-5--|


                                           To Coda
  Ab5  G5           Ab5C5    AbG5   Eb5  D5
  Q  E E +H       E Q  E +E  E Q    Q.   E +H
|---------------|-----------------|---------------|
|---------------|-----------------|---------------|
|---------------|-----------------|---------------|
|---------------|------5-(5)------|-8----7-(7)----|
|---------------|-5-6--------6-5--|---------------|
|-6--6-5-(5)----|-----------------|---------------|
|
| Q  E E +H       E Q  E +E  E Q    Q.   E +H
|---------------|-----------------|---------------|
|---------------|-----------------|---------------|
|---------------|-----------------|---------------|
|---------------|-----------------|---------------|
|---------------|------3-(3)------|-6----5-(5)----|
|-6--6-5-(5)----|-5-6--------6-5--|---------------|


 1.
  G5  Ab5 G5  D5  G5  F5  D5  G5  N.C.
  PM------------------------|
  S S S S S S S S S S S S S S E   W
|-------------------------------|-------||
|-------------------------------|------o||
|-------------------------------|-------||
|-------------------------------|-------||
|-------------------------------|------o||
|-5-5-6-6-5-5-0-0-5-5-3-3-0-0-5-|-------||
|
| PM------------------------|
| S S S S S S S S S S S S S S E
|-------------------------------|-------||
|-------------------------------|------o||
|-------------------------------|-------||
|-------------------------------|-------||
|-------------------------------|------o||
|-5-5-6-6-5-5-0-0-5-5-3-3-0-0-5-|-------||


  2.
  G5AbG5D5G5F5D5G5   F5D5          F5  D5F5
  Gtrs I, II
  PM------------|      PM|   PM--|     PM  PM|   PM--|
  E E E E E E E E    E E E E E E E E   E E E E E E E E
|-----------------||-----------------|-----------------|
|-----------------||-----------------|-----------------|
|-----------------||-----------------|-----------------|
|-----------------||-----------------|-----------------|
|-5-6-5-0-5-3-0-5-||-3-0-0-0-0-0-0-3-|-0-3-0-0-0-0-0-0-|
|-5-6-5-0-5-3-0-5-||-3-0-0-0-0-0-0-3-|-0-3-0-0-0-0-0-0-|


  F5D5          EbF5   Eb5                    F5D5          F5
    PM|   PM--|                                 PM|   PM--|
  E E E E E E E S  S   E E     E E E E E E    E E E E E E E E
|--------------------|----------------------|-----------------|
|--------------------|----------------------|-----------------|
|--------------------|----------------------|-----------------|
|---------------8s10-|-8-8b10==8-8-8-8-8-8r-|-----------------|
|-3-0-0-0-0-0-0-6s=8-|-6-6b8===6-6-6-6-6-6r-|-3-0-0-0-0-0-0-3-|
|-3-0-0-0-0-0-0------|----------------------|-3-0-0-0-0-0-0-3-|


  D5F5D5            F5D5          EbF5   Eb5
  PM  PM|   PM--|     PM|   PM--|
  E E E E E E E E   E E E E E E E S  S   E E     E E E E E E
|-----------------|--------------------|----------------------|
|-----------------|--------------------|----------------------|
|-----------------|--------------------|----------------------|
|-----------------|---------------8s10-|-8-8b10==8-8-8-8-8-8r-|
|-0-3-0-0-0-0-0-0-|-3-0-0-0-0-0-0-6s=8-|-6-6b8===6-6-6-6-6-6r-|
|-0-3-0-0-0-0-0-0-|-3-0-0-0-0-0-0------|----------------------|


  F5D5          F5  D5F5D5            F5D5          EbF5
    PM|   PM--|     PM  PM|   PM--|     PM|   PM--|
  E E E E E E E E   E E E E E E E E   E E E E E E E S  S
|-----------------|-----------------|--------------------|
|-----------------|-----------------|--------------------|
|-----------------|-----------------|--------------------|
|-----------------|-----------------|---------------8s10-|
|-3-0-0-0-0-0-0-3-|-0-3-0-0-0-0-0-0-|-3-0-0-0-0-0-0-6s=8-|
|-3-0-0-0-0-0-0-3-|-0-3-0-0-0-0-0-0-|-3-0-0-0-0-0-0------|


  Eb5                    F5D5          F5  D5F5D5
                           PM|   PM--|     PM  PM|   PM--|
  E E     E E E E E E    E E E E E E E E   E E E E E E E E
|----------------------|-----------------|-----------------|
|----------------------|-----------------|-----------------|
|----------------------|-----------------|-----------------|
|-8-8b10==8-8-8-8-8-8r-|-----------------|-----------------|
|-6-6b8===6-6-6-6-6-6r-|-3-0-0-0-0-0-0-3-|-0-3-0-0-0-0-0-0-|
|----------------------|-3-0-0-0-0-0-0-3-|-0-3-0-0-0-0-0-0-|


  F5D5          EbF5   Eb5                     Dm   G5     Dm
  Gtr II
    PM|   PM--|
  E E E E E E E S  S   E E     E E E E E E     Q.   E +Q   Q
|--------------------|----------------------||----------------|
|--------------------|----------------------||----------------|
|--------------------|----------------------||----------------|
|---------------8s10-|-8-8b10==8-8-8-8-8-8r-||----------------|
|-3-0-0-0-0-0-0-6s=8-|-6-6b8===6-6-6-6-6-6r-||-5-----------5--|
|-3-0-0-0-0-0-0------|----------------------||------5-(5)-----|
|
| Gtr I
|   PM|   PM--|
| E E E E E E E S  S   E E     E E E E E E     Q.   E +Q   Q
|--------------------|----------------------||----------------|
|--------------------|----------------------||----------------|
|--------------------|----------------------||----------------|
|---------------8s10-|-8-8b10==8-8-8-8-8-8r-||----------------|
|-3-0-0-0-0-0-0-6s=8-|-6-6b8===6-6-6-6-6-6r-||-8-----------8--|
|-3-0-0-0-0-0-0------|----------------------||------5-(5)-----|


                                      D.S. al Coda
  Eb   G5     Eb   F    G5     F    Eb   G5     Eb5
  Gtr II
  Q.   E +Q   Q    Q.   E +Q   Q    Q.   E +Q   Q
|----------------|----------------|----------------||
|----------------|----------------|----------------||
|----------------|----------------|----------------||
|----------------|----------------|----------------||
|-6-----------6--|-8-----------8--|-6-----------6--||
|------5-(5)-----|------5-(5)-----|------5-(5)-----||
|
| Gtr I
| Q.   E +Q   Q    Q.   E +Q   Q    Q.   E +Q   Q
|----------------|----------------|----------------||
|----------------|----------------|----------------||
|----------------|----------------|----------------||
|-5-----------5--|-7-----------7--|-5-----------5--||
|----------------|----------------|----------------||
|------5-(5)-----|------5-(5)-----|------5-(5)-----||


  &
  G5  Ab5 G5  D5  G5  F5  D5  G5     D5                           Eb5
  Gtrs I, II
  PM----------------------------|
  S S S S S S S S S S S S S S S S    E E E E H      S E S E E +E  S S S S S S
|---------------------------------||--------------|----------------------------|
|---------------------------------||--------------|----------------------------|
|---------------------------------||--------------|----------------------------|
|---------------------------------||-0-----0------|-0---0---0-(0)--------------|
|---------------------------------||-0-----0------|-0---0---0-(0)--------------|
|-5-5-6-6-5-5-0-0-5-5-3-3-0-0-5-5-||-0-----0------|-0---0---0-(0)-1-1-1-1-1-1--|


  D5                           Eb5           D5
  E E E E H      S E S E E +E  S S S S S S   E E E E H
|--------------|---------------------------|--------------|
|--------------|---------------------------|--------------|
|--------------|---------------------------|--------------|
|-0-----0------|-0---0---0-(0)-------------|-0-----0------|
|-0-----0------|-0---0---0-(0)-------------|-0-----0------|
|-0-----0------|-0---0---0-(0)-1-1-1-1-1-1-|-0-----0------|


                Eb5           D5                           Eb
  Gtr II
  S E S E E +E  S S S S S S   E E E E H      S E S E E +E   S  S  S  S  S  S
|---------------------------|--------------|-----------------------------------|
|---------------------------|--------------|-----------------------------------|
|---------------------------|--------------|---------------12-12-12-12-12-12S==|
|-0---0---0-(0)-------------|-0-----0------|-0---0---0-(0)--x--x--x--x--x--x---|
|-0---0---0-(0)-------------|-0-----0------|-0---0---0-(0)-10-10-10-10-10-10S==|
|-0---0---0-(0)-1-1-1-1-1-1-|-0-----0------|-0---0---0-(0)---------------------|
|
| Gtr I
| S E S E E +E  S S S S S S   E E E E H      S E S E E +E   S  S  S  S  S  S
|---------------------------|--------------|-----------------------------------|
|---------------------------|--------------|-----------------------------------|
|---------------------------|--------------|-----------------------------------|
|-0---0---0-(0)-------------|-0-----0------|-0---0---0-(0)---------------------|
|-0---0---0-(0)-------------|-0-----0------|-0---0---0-(0)---------------------|
|-0---0---0-(0)-1-1-1-1-1-1-|-0-----0------|-0---0---0-(0)--1--1--1--1--1--1---|


  Dm     D5                     Eb                  Dm     D5
   E E E E H      S E S E E +E   S  S  S  S  S  S    E E E E H
|---------------|---------------------------------|---------------|
|---------------|---------------------------------|---------------|
|-10-----7------|---------------12-12-12-12-12-12S|=10-----7------|
|--x-----x------|-0---0---0-(0)--x--x--x--x--x--x-|--x-----x------|
|--8-----5------|-0---0---0-(0)-10-10-10-10-10-10S|==8-----5------|
|---------------|-0---0---0-(0)-------------------|---------------|
|
|  E E E E H      S E S E E +E   S  S  S  S  S  S    E E E E H
|---------------|---------------------------------|---------------|
|---------------|---------------------------------|---------------|
|---------------|---------------------------------|---------------|
|--0-----0------|-0---0---0-(0)-------------------|--0-----0------|
|--0-----0------|-0---0---0-(0)-------------------|--0-----0------|
|--0-----0------|-0---0---0-(0)--1--1--1--1--1--1-|--0-----0------|


                Eb                  Dm     D5
  S E S E E +E   S  S  S  S  S  S    E E E E H
|---------------------------------|---------------|
|---------------------------------|---------------|
|---------------12-12-12-12-12-12S|=10-----7------|
|-0---0---0-(0)--x--x--x--x--x--x-|--x-----x------|
|-0---0---0-(0)-10-10-10-10-10-10S|==8-----5------|
|-0---0---0-(0)-------------------|---------------|
|
| S E S E E +E   S  S  S  S  S  S    E E E E H
|---------------------------------|---------------|
|---------------------------------|---------------|
|---------------------------------|---------------|
|-0---0---0-(0)-------------------|--0-----0------|
|-0---0---0-(0)-------------------|--0-----0------|
|-0---0---0-(0)--1--1--1--1--1--1-|--0-----0------|


                Eb
  S E S E E +E   S  S  S  S  S  S
|-----------------------------------|
|-----------------------------------|
|---------------12-12-12-12-12-12S==|
|-0---0---0-(0)--x--x--x--x--x--x---|
|-0---0---0-(0)-10-10-10-10-10-10S==|
|-0---0---0-(0)---------------------|
|
| S E S E E +E   S  S  S  S  S  S
|-----------------------------------|
|-----------------------------------|
|-----------------------------------|
|-0---0---0-(0)---------------------|
|-0---0---0-(0)---------------------|
|-0---0---0-(0)--1--1--1--1--1--1---|


  Dm     D5                 N.C.
   E E E E H      S E S E E H
|---------------|----------------*|
|---------------|----------------*|
|-10-----7------|----------------*|
|--x-----x------|-0---0---0------*|
|--8-----5------|-0---0---0------*|
|---------------|-0---0---0------*|
|
|  E E E E H      S E S E E H
|---------------|----------------*|
|---------------|----------------*|
|---------------|----------------*|
|--0-----0------|-0---0---0------*|
|--0-----0------|-0---0---0------*|
|--0-----0------|-0---0---0------*|

Duration Legend
---------------
W - whole; H - half; Q - quarter; E - 8th; S - 16th; T - 32nd; X - 64th; a - acciaccatura
+ - note tied to previous; . - note dotted; .. - note double dotted
Uncapitalized letters represent notes that are staccato (1/2 duration)
Irregular groupings are notated above the duration line
Duration letters will always appear directly above the note/fret number it represents the
duration for.  Duration letters with no fret number below them represent rests.  Multi-
bar rests are notated in the form Wxn, where n is the number of bars to rest for.  Low
melody durations appear below the staff

Tablature Legend
----------------
 h   - hammer-on
 p   - pull-off
 b   - bend
 pb  - pre-bend
 r   - bend release (if no number after the r, then release immediately)
 /\  - slide into or out of (from/to "nowhere")
 s   - legato slide
 S   - shift slide
 - natural harmonic
[n]  - artificial harmonic
n(n) - tapped harmonic
 ~   - vibrato
 tr  - trill
 T   - tap
 TP  - trem. picking
 PM  - palm muting
\n/  - tremolo bar dip; n = amount to dip
 \n  - tremolo bar down
 n/  - tremolo bar up
/n\  - tremolo bar inverted dip
 =   - hold bend; also acts as connecting device for hammers/pulls
 <> - volume swell (louder/softer)
 x   - on rhythm slash represents muted slash
 o   - on rhythm slash represents single note slash

Misc Legend
-----------
 |  - bar
||  - double bar
||o - repeat start
o|| - repeat end
*|  - double bar (ending)
 :  - bar (freetime)
 $  - Segno
 &  - Coda
Tempo markers -  = BPM(8/16=s8/s16), where s8 = swing 8ths, s16 = swing 16ths




**I only copied this from the powertab i take no credit, all credit goes to "David 
and Pete Billmann"**
            

comments powered by Disqus
↑ Back to top | Stone Sour Tabs for 1st Person. Lyrics for acoustic guitar and electric guitar. Tablatures and chords are parodies/interpretations of the original songs. You may use it for private study, scholarship, research or language learning purposes only