>
 >
0rchids

0rchids Guitar Tabs

Stone  Sour - 0rchids chords, tabs, tablatures, lyrics

Guitar lessons | Add/correct | Request | Top 50 tabs Artists:  A B C D E F G H I J K L M N O P Q R S T U V W X Y Z 0-9

0rchids Guitar Tabs – Stone Sour

CD, Sheet music, Poster

Do you like 0rchids? Share with your friends now
Tabs
TUNING:		DROPPED B TUNING, 2 1/2 STEPS ( B F# B E G# C# )

/ = Slide Up
\ = Slide Down
~ = Bend
. = Palm Mute
x = String Mute
 = Tremelo Picking
_ = Let Ring

INTRO (JIM) 0:22/0:48

C#|-----------------      -----------------
G#|-----------------      -----------------
E |-----------------      -----------------
B |--0--0-0--0-0-0--      --0--0-0--1p0----
F#|--0--0-0--0-0-0--      --0--0-0------5~-
B |--0--0-0--0-0-0--  x3  --0--0-0---------  x1
        . .                    . .

INTRO (JOSH) 0:22/0:48

C#|-----------------      -----------------
G#|-----------------      -----------------
E |-----------------      -----------------
B |--7--7-7--7-7-7--      --7--7-7------0--
F#|--5--5-5--5-5-5--      --5--5-5--6p5-5--
B |--0--0-0--0-0-0--  x3  --0--0-0---------  x1
        . .                    . .

PRE CHORUS 0:48/1:04

C#|-------------------------
G#|-------------------------
E |--7--5--8--10---7--5--8--
B |--x--x--x--x----x--x--x--
F#|--5--3--6--8----5--3--6--
B |-------------------------  x4


CHORUS 1:04/1:26

C#|-------------------      ----------
G#|-------------------      ----------
E |-------------------      ----------
B |--0--0-0-1--0-6-5--      --3--3-3--
F#|--0--0-0-1--0-6-5--      --3--3-3--
B |--0--0-0-1--0-6-5--  x3  --3--3-3--  x1

C#|------------------------------
G#|------------------------------
E |------------------------------
B |--0---0--0--0--0--0--0-0-0-0--
F#|--0---0--0--0--0--0--0-0-0-0--
B |--0---0--0--0--0--0--0-0-0-0--  x2
     .   .  .  .  .  .  . . . .

VERSE (JIM) 1:26/1:44

C#|-----------------      -----------------
G#|-----------------      -----------------
E |-----------------      -----------------
B |--0--0-0--0-0-0--      --0--0-0--1p0----
F#|--0--0-0--0-0-0--      --0--0-0------5~-
B |--0--0-0--0-0-0--  x3  --0--0-0---------  x1
        . .                    . .

VERSE (JOSH) 1:26/1:44

C#|-----------------      -----------------
G#|-----------------      -----------------
E |-----------------      -----------------
B |--7--7-7--7-7-7--      --7--7-7------0--
F#|--5--5-5--5-5-5--      --5--5-5--6p5-5--
B |--0--0-0--0-0-0--  x3  --0--0-0---------  x1
        . .                    . .

PRE CHORUS 1:44/2:02

C#|-------------------------
G#|-------------------------
E |--7--5--8--10---7--5--8--
B |--x--x--x--x----x--x--x--
F#|--5--3--6--8----5--3--6--
B |-------------------------  x4

CHORUS 2:02/2:18

C#|-------------------      ----------
G#|-------------------      ----------
E |-------------------      ----------
B |--0--0-0-1--0-6-5--      --3--3-3--
F#|--0--0-0-1--0-6-5--      --3--3-3--
B |--0--0-0-1--0-6-5--  x3  --3--3-3--  x1

INTERLUDE 2:18/2:53

C#|------------------------------------------------
G#|------------------------6------------------6----
E |--------------7-8-7---7---8------7-8-7---7---8--
B |--7---------------------------------------------
F#|--5---------------------------------------------
B |--0---------------------------------------------

VERSE (JIM) 2:53/3:28

C#|-----------------      -----------------
G#|-----------------      -----------------
E |-----------------      -----------------
B |--0--0-0--0-0-0--      --0--0-0--1p0----
F#|--0--0-0--0-0-0--      --0--0-0------5~-
B |--0--0-0--0-0-0--  x3  --0--0-0---------  x1
        . .                    . .

VERSE (JOSH) 2:53/3:28

C#|-----------------      -----------------
G#|-----------------      -----------------
E |-----------------      -----------------
B |--7--7-7--7-7-7--      --7--7-7------0--
F#|--5--5-5--5-5-5--      --5--5-5--6p5-5--
B |--0--0-0--0-0-0--  x3  --0--0-0---------  x1
        . .                    . .

PRE CHORUS 3:28/3:46

C#|-------------------------
G#|-------------------------
E |--7--5--8--10---7--5--8--
B |--x--x--x--x----x--x--x--
F#|--5--3--6--8----5--3--6--
B |-------------------------  x4

CHORUS 3:46/4:03

C#|-------------------      ----------
G#|-------------------      ----------
E |-------------------      ----------
B |--0--0-0-1--0-6-5--      --3--3-3--
F#|--0--0-0-1--0-6-5--      --3--3-3--
B |--0--0-0-1--0-6-5--  x3  --3--3-3--  x1

OUTRO (JIM) 4:03/4:20

C#|------------------------------
G#|------------------------------
E |------------------------------
B |--0---0--0--0--0--0--0-0-0-0--
F#|--0---0--0--0--0--0--0-0-0-0--
B |--0---0--0--0--0--0--0-0-0-0--  x8
     .   .  .  .  .  .  . . . .

OUTRO (JOSH) 4:03/4:20

C#|-----------------
G#|------------6----
E |--7-8-7---7---8--
B |-----------------
F#|-----------------
B |----------------- x8





Comments


Popular Stone Sour tabs & chords
Idle Hands Bass Tabs
Socio Bass Tabs
This Time Bass Tabs
B0ther Tabs
Bother 12 Tabs
Choose 2 Tabs
Idle Hands Intro Tabs
Reborn 3 Tabs
Taciturn Ukulele
Wicked Game Ukulele


Song lyrics



↑ Back to top | Tablatures and chords are parodies/interpretations of the original songs. You may use it for private study, scholarship, research or language learning purposes only
© 2014 AZChords.com Contact us | Privacy policy | DMCA | Add/correct tabs | Request tabs | Top 50 tabs