>
 >
Sally Cinammon 2

Sally Cinammon 2 Bass Tabs

Stone Roses - Sally Cinammon 2 chords, tabs, tablatures, lyrics

Guitar lessons | Add/correct | Request | Top 50 tabs Artists:  A B C D E F G H I J K L M N O P Q R S T U V W X Y Z 0-9

Sally Cinammon 2 Bass Tabs – Stone Roses

CD, Sheet music, Poster

Do you like Sally Cinammon 2? Share with your friends now
Bass TabsBass Tabs v2
SALLY CINAMMON BASS TAB

BASSIST: MANI

GUITAR INTO (TRANSCRIBED FOR BASS):
G|--7--5-4-5-4-5-4-5-4----|
D|5----------------------7-|
A|-------------------------|
E|-------------------------|

BASS INTRO:
G|----------|-------------|
D|----------|-------------|
A|-5~-------|-3~------3-5-|
E|----------|-------------|

VERSE ONE:
G|---------------|------2-4-2--|-----------------|----------------|
D|-5-5-5-5-5-5-5-|5-5-5--------|-----------------|----------------|
A|---------------|-------------|-3-3-3-3-3-3-3-3-|3-33-3-3-3-3-3-| x4
E|---------------|-------------|-----------------|----------------|

CHORUS:
G|----------|----------|
D|----------|----------|
A|-5~-------|-3~-------|
E|----------|----------|

G|-----------------|----5-4-2--|-----------------|----5-4-2--|
D|-5-5-5-5-5-5-5---|-----------|-5-5-5-5-5-5-5---|-----------|
A|---------------3-|-----------|---------------3-|-----------|
E|-----------------|-----------|-----------------|-----------|

VERSE TWO:
G|---------------|------2-4-2--|-----------------|----------------|
D|-5-5-5-5-5-5-5-|5-5-5--------|-----------------|----------------|
A|---------------|-------------|-3-3-3-3-3-3-3-3-|3-33-3-3-3-3-3-| x4
E|---------------|-------------|-----------------|----------------|

CHORUS:
G|----------|----------|
D|----------|----------|
A|-5~-------|-3~-------|
E|----------|----------|

G|-----------------|----5-4-2--|-----------------|----5-4-2--|
D|-5-5-5-5-5-5-5---|-----------|-5-5-5-5-5-5-5---|-----------|
A|---------------3-|-----------|---------------3-|-----------|
E|-----------------|-----------|-----------------|-----------|

GUITAR SOLO:
G|-----------------|----5-4-2--|-----------------|----5-4-2--|
D|-----------------|-----------|-----------------|-----------|
A|---------------3-|-----------|---------------3-|-----------| x2
E|-3-3-3-3-3-3-3---|-----------|-3-3-3-3-3-3-3---|-----------|

BREAK:
G|-----------------|-----------------|
D|-----------------|-----------------|
A|-5-5-5-5-5-5-5-5-|-5-5-5-5-5-5-5-5-|
E|-----------------|-----------------|
G|-----------------|-----------------|
D|-----------------|-----------------|
A|-3-3-3-3-3-3-3-3-|-3-3-3-3-3-3-3-3-|
E|-----------------|-----------------|

G|-----------------|-----------------|
D|-----------------|-----------------|
A|-5-5-5-5-5-5-5-5-|-5-5-5-5-5-5-5-5-|
E|-----------------|-----------------|

G|-----------------|-----------------|
D|-----------------|-----------------|
A|3~---------------|-----------------|
E|-----------------|-----------------|

REST THREE BARS AND THEN PLAY:

G|----5-4-2--|
D|-----------|
A|-----------|
E|-----------|

VERSE THREE:
G|-----------------|----5-4-2--|-----------------|----5-4-2--|
D|-5-5-5-5-5-5-5---|-----------|-5-5-5-5-5-5-5---|-----------|
A|---------------3-|-----------|---------------3-|-----------| x2
E|-----------------|-----------|-----------------|-----------|

CHORUS:
G|----------|----------|
D|----------|----------|
A|-5~-------|-3~-------|
E|----------|----------|

G|-----------------|----5-4-2--|-----------------|----5-4-2--|
D|-5-5-5-5-5-5-5---|-----------|-5-5-5-5-5-5-5---|-----------|
A|---------------3-|-----------|---------------3-|-----------| x4
E|-----------------|-----------|-----------------|-----------|





Comments


Popular Stone Roses tabs & chords
Made Of Stone 2 Bass Tabs
Waterfall 3 Bass Tabs
How Do You Sleep Chords
I Am The Resurrection 1 Chords
Shoot You Down Chords
Elephant Stone 1 Tabs
Fool 1 Tabs
Mersey Paradise Tabs
I Am The Ressurection Ukulele
Love Spread Ukulele


Song lyrics



↑ Back to top | Tablatures and chords are parodies/interpretations of the original songs. You may use it for private study, scholarship, research or language learning purposes only
© 2014 AZChords.com Contact us | Privacy policy | DMCA | Add/correct tabs | Request tabs | Top 50 tabs