» » »

Stone Roses, I Wanna Be Adored Bass tabs (ver.2)

Artists:  A B C D E F G H I J K L M N O P Q R S T U V W X Y Z # 

I Wanna Be Adored Bass tabs (ver.2)

Stone Roses Tabs
Rating:
4/5 (7 votes)
I Wanna Be Adored lessons Tabs too difficult? Try these video lessons and learn fast
                Most tabs were pretty good but missed the bridge section.. heres mine

Main Riff

  eeeeeeee|eeeeeeq |eeeeeeeq  | eeq eee
G|--------|--------|----------|---------|
D|--------|--------|----------|---------|
A|----5555|----575-|7---7-77/9|-779-77--|
E|3333----|3333----|-000-0----|-------0-|

And the bridge section:

  q   q   e e e e
G|----------------|
D|----------------|
A|5---5---3---3---|
E|----------5---5-|

Repeat 8x

then
  e e e e e e e e |e e e e e
G|----------------|-----------|R
D|----------------|-----------|R
A|5-5-5-5-5-5-5-5-|5-5-5-5-5--|R
E|----------------|-----------|R


e = eighth note
q = quarter note
R = Rest

cheers
            
Submit corrections

comments powered by Disqus
↑ Back to top | Stone Roses Bass for I Wanna Be Adored. Lyrics for acoustic guitar and electric guitar. Tablatures and chords are parodies/interpretations of the original songs. You may use it for private study, scholarship, research or language learning purposes only