>
 >
Listen

Listen Guitar Tabs

Stone Free - Listen chords, tabs, tablatures, lyrics

Guitar lessons | Add/correct | Request | Top 50 tabs Artists:  A B C D E F G H I J K L M N O P Q R S T U V W X Y Z 0-9

Listen Guitar Tabs – Stone Free

CD, Sheet music, Poster

Do you like Listen? Share with your friends now
Bass TabsChordsTabs

Info.: Fine arts stude major in visual communication
Track can be downloaded from kazaa
Other versions include an acoustic one

Note: this song uhhh... is a bit easy to play... the chords for the chorus may sound 
but it really sounds that way so have fun and enjoy my first tab... Post-script: This is 
for revision... you may use my "oido"ed info here but don't forget to... ehem RECOGNIZE me as the original
PHILIPPINES!!!

************************************************************************
************************************************************************

STANDARD TUNING

Intro: 4x

(Hmmm is this is an acoustic guitar???)
   E	   F#m	     D           D
e|------------------------------3---------------------------------------|
B|-------3--------3-------3---------3*------3*--------------------------|
G|-----0--------0-------0------0-------0*-------------------------------|
D|--2-------2s4-------4-----0------------0*-----------------------------|
A|----------------------------------------------------------------------|
E|----------------------------------------------------------------------|

*(more of a staccato)

Verse: 3x

   E	   F#m	     D           D
e|------------------------------3---------------------------------------|
B|-------3--------3-------3---------3*------3*--------------------------|
G|-----0--------0-------0------0-------0*-------------------------------|
D|--2-------2s4-------4-----0------------0*-----------------------------|
A|----------------------------------------------------------------------|
E|----------------------------------------------------------------------|

(Do the same staccato he he he)

Last time for verse:

   E	   F#m	     D           D
e|----------------------------------3-----------------------------------|
B|-------3--------3---------3-------------------------------------------|
G|-----0--------0--------0-------0--------------------------------------|
D|--2-------2s4-------4-------0-----------------------------------------|
A|----------------------------------------------------------------------|
E|----------------------------------------------------------------------|

Chorus:
(sounds very awkward but accurate)
(comes with distortion... he he he work with that pedal...)

   E	   F#m	     D           C
e|--x-------------------------------------------------------------------|
B|--x---------10--------------------------------------------------------|
G|--9---------11--------7-----------5-----------------------------------|
D|--9---------11--------7-----------5-----------------------------------|
A|--7---------9---------5-----------3-----------------------------------|
E|--0-------------------------------------------------------------------|

(here's an alternate way of playing it)
(this sounds a lil better than the first riff)

   E	   F#m	     D           C
e|--x-------------------------------------------------------------------|
B|--x---------10--------------------------------------------------------|
G|--9---------11--------7-----------5-----------------------------------|
D|--x---------x---------x-----------x-----------------------------------|
A|--7---------9---------5-----------3-----------------------------------|
E|--0-------------------------------------------------------------------|


Lead:
(after second chorus)
(Distort please!!!)

e|----------------------------------------------------------------------|
B|----------------------------------------------------------------------|
G|---7---5--4---5--4--------------7----5--4--5---4----------------------|
D|--------------------5---5---5*-------------------5--4---0--2--4--5----|
A|----------------------------------------------------------------------|
E|----------------------------------------------------------------------|

*(as usual the 'staccato')

e|----------------------------------------------------------------------|
B|----------------------------------------------------------------------|
G|---7---5--4---5--4--------------7----5--4--5--4-----------------------|
D|--------------------5---5---5*-------------------5--5---5s7-----------|
A|----------------------------------------------------------------------|
E|----------------------------------------------------------------------|

e|--------------------------------------------------19----17-------17---|
B|------8-----10------8-------10----------------------------------------|
G|----------------------------------7----7----5-----------------19------|
D|---7-----7-------7------7---------7----7----5-------------------------|
A|----------------------------------5----5----3-------------------------|
E|----------------------------------------------------------------------|

e|------15----------------------------19------17--------15--------------|
B|--------------15s17--------------------------------------------15s17--|
G|--19------19---------7--7--5---19------19-------19-------19-----------|
D|---------------------7--7--5------------------------------------------|
A|---------------------5--5--3------------------------------------------|
E|----------------------------------------------------------------------|

e|----19---17--------17------------15-----------------------------------|
B|-------------------------------------------15s17----------------------|
G|--------------19----------19---------19------------7---7----5---5-----|
D|---------------------------------------------------7---7----5---5-----|
A|---------------------------------------------------5---5----3---3-----|
E|----------------------------------------------------------------------|

Hey you could have ur own version of the lead solo if u want to... I was having a tough 
tabbing that out bcoz I was using an acoustic guitar... he he he... poor me...

Lyrics

Intro
Verse1:
Close the door
I feel a breeze hold me please
I hate to be alone
It's a cold night, turn off the light
Come take my hand and...

Chorus:
to these things I have to say
please understand
she left me, all alone again

Verse2:
Clear the room
Of every memory
I don't want that song back on
It's an endless maze
Take away this haze
Please mend my heart and...

Chorus:
to these things I have to say
please understand
she left me, all alone again

Adlib

Chorus:
to these things I have to say
please understand
she left me, all alone again

Verse3:
Turn away
Don't want you to see me cry
I just want things the way they were
It's so hard to say goodbye
Wipe my tears and...

Chorus:
to these things I have to say
please understand
she left me, all alone again

Outro:
This I ask of you
Please stay with me
Until she comes back





Comments


Popular Stone Free tabs & chords
Listen Bass Tabs
Anghel Chords
Ikot Chords
Listen Chords
Lss Chords
Sayang Chords
Anghel Tabs
First Tabs
Listen Intro Tabs
Some Call It Funk Tabs


Song lyrics



↑ Back to top | Tablatures and chords are parodies/interpretations of the original songs. You may use it for private study, scholarship, research or language learning purposes only
© 2014 AZChords.com Contact us | Privacy policy | DMCA | Add/correct tabs | Request tabs | Top 50 tabs