» » »

Sting, Desert Rose Bass tabs (ver.1)

Artists:  A B C D E F G H I J K L M N O P Q R S T U V W X Y Z # 

Desert Rose Bass tabs (ver.1)

Sting Tabs
Rating:
0/5 (0 votes)
Desert Rose lessons Tabs too difficult? Try these video lessons and learn fast
                Tuning: Normal

This song has alot of different small variations in 
different verses, but are pretty much the same 
throughout, this is my very best transcript of how it 
is played. And you have to listen very carefully 
because it's not very easy to hear Sting's bass in this
 song, so timing can really mess you up on this tab. 
The order the riffs are played in are listed at the 
bottom.

~ = ring

Intro                    |play this until drums come in|                             
G|----------------|------|-----------------------------|
D|----------------|------|-----------------------------|
A|----------0-1-1-|------|-------------0-1-1-----------|
E|-0-1-1----------|--0~--|-0-1-1-----------------------|
      |Play 2x|

Riff 1
G|-----------|---------------|----------|---------------|
D|-----------|----5-3---3-5--|----------|-0-3------5h7h5|
A|--3-3------|-3------5------|--3-3-----|-----0-3-5-----|
E|-----------|---------------|----------|---------------|
   |Play 3x|                   |Play 3x|

Riff 2
G|--------|---------|----------|------------------------|
D|--------|---------|----------|------------------------|
A|--3-3---|---------|----------|------------------------|
E|--------|--5-5----|--3-3-----|-8-8-6-6----------------|
 |Play 2x| |Play 2x|  |Play 2x|

Break/Outro
G|----------------|
D|----------------|
A|----------0-1-1-|
E|-0-1-1----------|
  |Play Continuously Until Solo|



Solo     (im not so sure about this)
G|------------------------|-----------------------------|
D|--3-2-0-----------------|-----------------------------|
A|--------0-0-3-3--5-3-2-3|-12-11-10-9-8-7-6-5--4---3---|
E|------------------------|-----------------------------|

 ------
|Order:|
 ------
Intro
Riff 1
Riff 2
Riff 1
Riff 2 (2x)
Break\Outro
Solo
Riff 2 (3x)
Break\Outro
            

comments powered by Disqus
↑ Back to top | Sting Bass for Desert Rose. Lyrics for acoustic guitar and electric guitar. Tablatures and chords are parodies/interpretations of the original songs. You may use it for private study, scholarship, research or language learning purposes only