>
 >
Amber

Amber Guitar Tabs

Stick To Your Guns - Amber chords, tabs, tablatures, lyrics

Guitar lessons | Add/correct | Request | Top 50 tabs Artists:  A B C D E F G H I J K L M N O P Q R S T U V W X Y Z 0-9

Amber Guitar Tabs – Stick To Your Guns

CD, Sheet music, Poster

Do you like Amber? Share with your friends now
Tabs
Stick to your Guns  Amber
Tuning: D Standard



Intro/Chorus Lead

Guitar 1 (Palm-mute the notes gently)

D|-----------------------------10-x8--------------------|
A|---------12-12-12--10-10-10----------7-x8--8-x8-------|
F|-9-9-9------------------------------------------------|
C|------------------------------------------------------|
G|------------------------------------------------------|
D|------------------------------------------------------|

Guitar 2

D|-----------------------------------------------------------|
A|-----------------------------------------------------------|
F|---------10-/-9--------------------------------------------|
C|-2-2-2--10-/-9--3-2---------------------------------------|
G|-2-2-2----8-/-7--3-2---------------------------------------|
D|-0-0-0-----------1-0---1-1-4-4-----------------------------|
   x x x                 x x x x

D|-----------------------------------------------------------|
A|-----------------------------------------------------------|
F|---------10-/-9--9-/-8-------------------------------------|
C|-2-2-2--10-/-9--9-/-8-------------------------------------|
G|-2-2-2----8-/-7--7-/-6-------------------------------------|
D|-0-0-0-------------------3-3-1-1---------------------------|
   x x x                   x x x x

D|-----------------------------------------------------------|
A|-----------------------------------------------------------|
F|---------10-/-9--------------------------------------------|
C|-2-2-2--10-/-9--3-2---------------------------------------|
G|-2-2-2----8-/-7--3-2---------------------------------------|
D|-0-0-0-----------1-0---1-1-4-4-----------------------------|
   x x x                 x x x x

D|-----------------------------------------------------------|
A|-----------------------------------------------------------|
F|---------10-/-9--9-/-8-------------------------------------|
C|-2-2-2--10-/-9--9-/-8---5---------------------------------|
G|-2-2-2----8-/-7--7-/-6---5---------------------------------|
D|-0-0-0-------------------3---------------------------------|
   x x x                   


Verse/Main Riff

Guitar 1 & 2

D|-----------------------------------------------------------|
A|-----------------------------------------------------------|
F|---------10-/-9--------------------------------------------|
C|-2-2-2--10-/-9--3-2---------------------------------------|
G|-2-2-2----8-/-7--3-2---------------------------------------|
D|-0-0-0-----------1-0---1-1-4-4-----------------------------|
   x x x                 x x x x

D|-----------------------------------------------------------|
A|-----------------------------------------------------------|
F|---------10-/-9--9-/-8-------------------------------------|
C|-2-2-2--10-/-9--9-/-8-------------------------------------|
G|-2-2-2----8-/-7--7-/-6-------------------------------------|
D|-0-0-0-------------------3-3-1-1---------------------------|
   x x x                   x x x x


Pre-Chorus

Guitar 1
D|--------------------------10-x8-----------------------12-----|
A|-----------------10-10-10--------------12-x4--15-x3--b15-----|
F|-9-9-9--12-12-12----------------11-x4------------------------|
C|-------------------------------------------------------------|
G|-------------------------------------------------------------|
D|-------------------------------------------------------------|

Guitar 2
D|-----------------------------------------------------------------|
A|-----------------------------------------------------------------|
F|----5----------7-------------------------------------------------|
C|----5---------7---(Palm-muted a bit around the last few strums)-|
G|----3----------5-------------------------------------------------|
D|-----------------------------------------------------------------|


Chorus

Guitar 1

Play the Lead from the Intro

Guitar 2
D|---------------------------------------------------|
A|---------------------------------------------------|
F|--------------------5-5-5-5--7-7-7-7---------------|
C|-2-2-2-2--5-5-5-5---5-5-5-5--7-7-7-7---------------|
G|-2-2-2-2--5-5-5-5---3-3-3-3--5-5-5-5---------------|
D|-0-0-0-0--3-3-3-3----------------------------------|


Back to the main riff for Guitar 2


Guitar 1 (come in at 1:21)
D|---------------------------------------------------|
A|---------------------------------------------------|
F|---------------------------------------------------|
C|-2-2---2-2------------2-2---2-2--------------------|
G|-2-2---2-2------------2-2---2-2--------------------|
D|-0-0---0-0--1-1-4-4---0-0---0-0--3-3-1-1-----------|
   x x   x x            x x   x x 


Guitar 2
D|-----------------------------------------------------------|
A|-----------------------------------------------------------|
F|---------10-/-9--------------------------------------------|
C|-2-2-2--10-/-9--3-2---------------------------------------|
G|-2-2-2----8-/-7--3-2---------------------------------------|
D|-0-0-0-----------1-0---1-1-4-4-----------------------------|
   x x x                 x x x x

D|-----------------------------------------------------------|
A|-----------------------------------------------------------|
F|---------10-/-9--9-/-8-------------------------------------|
C|-2-2-2--10-/-9--9-/-8-------------------------------------|
G|-2-2-2----8-/-7--7-/-6-------------------------------------|
D|-0-0-0-------------------3-3-1-1---------------------------|
   x x x                   x x x x


Line before Breakdown

Guitar 1 & 2
D|------------------------------------------------------------|
A|------------------------------------------------------------|
F|------------------------------------------------------------|
C|-------------------------2--2-------------------------------|
G|-------------3-----------2--2-------------------------------|
D|-4--3--1--0-----4--3--1--0--0-------------------------------|


Breakdown

Guitar 1 & 2
D|--------------------------------------------------------------------|
A|--------------------------------------------------------------------|
F|--------------------------------------------------------------------|
C|-----------2-------------------------------------6-5-3-5------------|
G|-----------2---(Let it Ring)---------------------6-5-3-5------------|
D|-1-1-4-4---0--------------------Pick slide-------4-3-1-3------------|
   x x x x

Guitar 1 & 2
D|-------------------------------------------------------------------|
A|-------------------------------------------------------------------|
F|------------------4------------------------------------------------|
C|-2-2----2-2-2-2---2-2---6-5-3-5---3-3----3-3-3-3---6-6--6-6-6-6----|
G|-2-2----2-2-2-2---2-2---6-5-3-5---3-3----3-3-3-3---6-6--6-6-6-6----|
D|-0-0----0-0-0-0---0-0---4-3-1-3---1-1----1-1-1-1---4-4--4-4-4-4----| x2
   x x    x x x x     x             x x    x x x x   x x  x x x x

Guitar 1
D|----------------------------------------------------------------|
A|----------------------------------------------------------------|
F|-------------------------5-5-5-5--------------------------------|
C|-2-2-2-2-2-2--5-5-5-5-5--5-5-5-5--7-7-7-7-----------------------|
G|-2-2-2-2-2-2--5-5-5-5-5--3-3-3-3--7-7-7-7-----------------------|
D|-0-0-0-0-0-0--3-3-3-3-3-----------5-5-5-5-----------------------| x2

Guitar 2
D|----------------------------------------------------------------|
A|----------------------------------------------------------------|
F|-9-9--12-11---7--9-9--12-11--7--12-12-12-12--5-5--4-2-----------|
C|-x-x---x--x---x--x-x---x--x--x---x--x--x--x--x-x--x-x-----------|
G|-7-7--10--9---5--7-7--10--9--5--10-10-10-10--3-3--2-2-----------|
D|----------------------------------------------------------------| x2

Guitar 1 & 2
D|-------------------------------------------------------------------|
A|-------------------------------------------------------------------|
F|------------------4------------------------------------------------|
C|-2-2----2-2-2-2---2-2---6-5-3-5---3-3----3-3-3-3---6-6--6-6-6-6----|
G|-2-2----2-2-2-2---2-2---6-5-3-5---3-3----3-3-3-3---6-6--6-6-6-6----|
D|-0-0----0-0-0-0---0-0---4-3-1-3---1-1----1-1-1-1---4-4--4-4-4-4----| x2
   x x    x x x x     x             x x    x x x x   x x  x x x x

Guitar 1
D|----------------------------------------------------------------|
A|----------------------------------------------------------------|
F|-------------------------5-5-5-5--------------------------------|
C|-2-2-2-2-2-2--5-5-5-5-5--5-5-5-5--7-7-7-7-----------------------|
G|-2-2-2-2-2-2--5-5-5-5-5--3-3-3-3--7-7-7-7-----------------------|
D|-0-0-0-0-0-0--3-3-3-3-3-----------5-5-5-5-----------------------| x2

Guitar 2
D|----------------------------------------------------------------|
A|----------------------------------------------------------------|
F|-9-9--12-11---7--9-9--12-11--7--12-12-12-12--5-5--4-2-----------|
C|-x-x---x--x---x--x-x---x--x--x---x--x--x--x--x-x--x-x-----------|
G|-7-7--10--9---5--7-7--10--9--5--10-10-10-10--3-3--2-2-----------|
D|----------------------------------------------------------------|

D|----------------------------------------------------------------|
A|----------------------------------------------------------------|
F|-9-9--12-11---7--9-9--12-11--7--12-12-12-12--14-14--16-16-------|
C|-x-x---x--x---x--x-x---x--x--x---x--x--x--x---x--x---x--x-------|
G|-7-7--10--9---5--7-7--10--9--5--10-10-10-10--12-12--14-14-------|
D|----------------------------------------------------------------|

Pre-Chorus

Guitar 1
D|--------------------------10-x8-----------------------12-----|
A|-----------------10-10-10--------------12-x4--15-x3--b15-----|
F|-9-9-9--12-12-12----------------11-x4------------------------|
C|-------------------------------------------------------------|
G|-------------------------------------------------------------|
D|-------------------------------------------------------------|

Guitar 2
D|-----------------------------------------------------------------|
A|-----------------------------------------------------------------|
F|----5----------7-------------------------------------------------|
C|----5---------7---(Palm-muted a bit around the last few strums)-|
G|----3----------5-------------------------------------------------|
D|-----------------------------------------------------------------|


Chorus 


End on a G5 power chord





Comments


Popular Stick To Your Guns tabs & chords
Diamond Bass Tabs
This Is More Bass Tabs
Against Them All Tabs
Diamond Tabs
Enough Is Enough Tabs
For What Its Worth Tabs
For What Its Worth 1 Tabs
Our Demise Tabs
This Is More Tabs
We Still Believe Tabs


Song lyrics



↑ Back to top | Tablatures and chords are parodies/interpretations of the original songs. You may use it for private study, scholarship, research or language learning purposes only
© 2014 AZChords.com Contact us | Privacy policy | DMCA | Add/correct tabs | Request tabs | Top 50 tabs