» » »

Stevie Wonder, Superstition Tabs (ver.1)

Artists:  A B C D E F G H I J K L M N O P Q R S T U V W X Y Z # 

Superstition Tabs (ver.1)

Stevie Wonder Tabs
 Rating:
4/5 (4 votes)
Superstition lessons Tabs too difficult? Try these video lessons and learn fast
1
                stevie wonder
                                    superstiton
                             all music by stevie wonder

i have tabbed 2 different ways to play song.. choose which way is easier to u. PLEASE RATE MY TAB!

X=PALM MUTE-1ST WAY
E-------------------------------------------------------------------------
B-------------------------------------------------------------------------
G-------------------------------------------------------------------------
D------------------5---X-X----------5---------------5-----------5---------
A------5-7---7-5-7---7-X-X------5-7---7-------7-5-7---7-----5-7---7-------
E--5-7-----0-----------X-X--5-7---------5-7-0-----------5-7---------------

X=PALM MUTE-2ND WAY

E---------------------------------------------------------------------
B---------------------------------------------------------------------
G------------------0---------------0---------------0----------------0---
D------0-2---2-0-2---2-X-X-----0-2---2-------2-0-2---2-x-x------0-2---2---
A--0-2-----------------X-X-0-2---------0-2-------------x-x--0-2--
E----------0-----------X-X-----------------0-----------x-x-----------

PLEAE RATE -KINGSAM-
            
Submit corrections

comments powered by Disqus
↑ Back to top | Stevie Wonder Tabs for Superstition. Lyrics for acoustic guitar and electric guitar. 1 Tablatures and chords are parodies/interpretations of the original songs. You may use it for private study, scholarship, research or language learning purposes only