>
 >
Tin Pan Ally

Tin Pan Ally Guitar Tabs

Stevie Ray Vaughan - Tin Pan Ally chords, tabs, tablatures, lyrics

Guitar lessons | Add/correct | Request | Top 50 tabs Artists:  A B C D E F G H I J K L M N O P Q R S T U V W X Y Z 0-9

Tin Pan Ally Guitar Tabs – Stevie Ray Vaughan

CD, Sheet music, Poster

Do you like Tin Pan Ally? Share with your friends now
Tabs
Artist Stevie Ray Vaughan
SOng Tin Pan Ally
Album COuldn't Stand the Weather
Tuning  down 1/2 step   Eb Ab Db Gb Bb Eb


-------8-8--------------------------------------------------------------------
-----8---8----------------------------11--------------------------------------
-10b-----8--8h10-8----------8-10-8-------10b-10-8h10-8------------------------
-------------------8*10--10--------10------------------10-8h10-8--------------
                                                                              

---------------------------8--------------------------------------------------
------------------8------8---11-8-----------11--------------------------------
------------------8--10b----------10br-8-------10b-10-8h10-8b-8---------------
-8*10-------8h10-10----------------------10---------------------10-8h10-8-10--
-------8h10-------------------------------------------------------------------
                                                                              

-----------------------13-16-16-----------------------------------------------
--9-----------------------------13-------------------8------------------------
-10--------------------10-13-13----15-13--------8-10---10-8----8--------------
-10-------8-8----------------------------15-15--------------10---10-8----8-10-
--8--8-11-----11-8-11-------------------------------------------------10------
                                                                              

--------------------------------------------11-8-/14-13-13-11-8-8--11-8-------
-8h10-10-10-8-----------------------11h13v------------------------------------
--------------10-10--8--------------------------------------------------------
-----------------------10-9-8-------------------------------------------------
------------------------------11-8--------------------------------------------
                                                                              

-8---------------------------------------------------8-8---8-8----------------
---8---------/8-------8---------8---------------------------------------------
----\10---------8-10----10-8----8--------------------8-10--8-10----8-10-8-----
--------8-10-----------------10---10-8------------10------------10--------10--
---------------------------------------10-9-8---------------------------------
----------------------------------------------11------------------------------
                                                                              

--------------------------------------8-------8--8----------------------------
-11-----------------------------------9-------8--8----------------------------
----10b-10-8h10-8---------------------10------8------------10-----------------
------------------10-10--8------------10-8-10-10------------------------------
---------------------------10-9-8-----8-------10----8-9-10--------------------
----------------------------------11----------8-------------------------------
                                                                              

----11-13-11-13h14p13p11-13h14p13p11-13h14p13p11-13h14p13p11-13h14p13p11------
-13---------------------------------------------------------------------------
                                                                              

-13h14p13p11-13h14p13p11-13-11-13h14p13p11-13-11-------11---------------------
-------------------------------------------------13-13----13-13p11h13-13-11---
                                                                              

-------------10/11-11------------------8-11-----------------11----------------
-13\12-------11/12-12--------8-10-8-10------8-10-11-10-8-------10br-8---------
-------13-10-----------10-10-----------------------------10-----------10------
                                                                              

-----------8------------------------------------------------6-8--8------------
---------8---11-8-------------11----------------------------------------------
-8-10-11----------10br-8---------10br-8---------------------8-10-10-8------8--
-------------------------10-8-----------10-10--8----------------------10-8----
-------------------------------------------------10-9-8-----------------------
--------------------------------------------------------11--------------------
                                                                              

-------------8-----------------------------------13h14p13----13---------------
-----------8-------------------------------13-16----------16----16-13----13---
-------10b-----10b-10-10-8b-------------------------------------------15------
-8*10-----------------------10-10-8-------------------------------------------
------------------------------------10-9-8------------------------------------
                                                                              

-----------------------------------------14-13h14p13----13--------------------
-16-13\11----11----------10/11-----13-16-------------16----16-13----13--------
----------12----12-\10-8-11/12--15-------------------------------15-----------
                                                                              

----13-16-13\11----13--------------10/11----10----8-----------------------11--
-14-------------12----12-10brp8----11/12----10----8------/8-10-10b-8----------
--------------------------------10-------10----10---8-10-------------10-8-----
                                                                              

--------------------------------------------8-8----15-15-15-15-15-15----------
-------------------------------------8/10-8-8-8-------------------------------
-10b-10b-8---------------------------8/10-8--------15-17/18\17-17-17-15-------
-----------10-10--8-------------8*10------------17----------------------17-17-
--------------------10-9-8----------------------------------------------------
---------------------------11-8-----------------------------------------------
                                                                              

--------------------------------------13--------------------13----------------
-----------------------------------------13--------------------13-------------
--------------------------------13-15-------15p13-----13-15-------15p13-------
-15h17-15h17-15--------------15-------------------15--------------------15----
----------------17-16-15------------------------------------------------------
-------------------------18---------------------------------------------------
                             (these are *really* fast)                        

-------13-------------------13-------------------13---------------------------
----------13-------------------13-------------------13------------------------
-13-15-------15p13----13-15-------15p13----13-15-------15p13------------------
-------------------15-------------------15-------------------15---------------
                                                                              

---------8--------------------------------------------------------------------
-----------8-----------------------11---------------7h8h10p8p7----------------
----8-10-----10p8----10/11\10-8-------10h11p10-8---------------8--------------
-10---------------10------------10---------------10--------------10-----------
                                                                              

----------------------------------------------------8-------------------------
--------------------------------------------------8---11-8-----------11-------
-8h10h11p10p8----10-8-------------------------10b----------10br-8-------10br--
--------------10------10-10-------------8-10----------------------10----------
----------------------------10-9-8--------------------------------------------
-----------------------------------11-8---------------------------------------
                                                                              

-----------8------------------------x-------------x---------------------------
-8----8h10---10p8----8---------------x--------10---x---------8----------------
---10-------------10---10-8-----------x-------------x---8-10------------------
----------------------------10-8-------8-9-10--------10-----------------------
---------------------------------11-------------------------------------------
                                                                              

----------------------------8-------------------------------------------------
----------------------------8-10-----------8----------------------------------
------------------------------10-8---------8----------------------------------
-----------------------------------10-8-10-10---------------------------------
 Went down to Tin Pan Alley                                                   

-----------------------------8------------------------------------------------
---------------------------8--------------------------------------------------
-----------------------10b-----10br-8---------8-------------------------------
--------------------------------------10-8-10---8*10--------------------------
 see what was goin' on                                                        

-------------------------------------8----------------------------------------
-----------------------------------8-------------8----------------------------
-------------------------------10b-----10br-8----8----------------------------
----------------------------------------------10------------------------------
 thangs was too hot down there                     couldn't stay very long    

-8----------------------------------------------------------------------------
-8----------------------------------------------------------------------------
-8--------------------10------------------------------------------------------
-10\---------------10----10/12\10---------------------------------------------
-10\---------11-11-------11/13\11---------------------------------------------
-8----------------------------------------------------------------------------
     yeah....                     Alley's the roughest place I've ever been   

--------------------------8---------------------------------------------------
-x----------------8-----8---11-8-------------8---------x---------11-----------
--x---------------8-10b--------10b-10-8------8----------x--------10-----------
---x---------8-10-----------------------10-8---10-8*10---x--------------------
----15\-8-10----------------------------------------------8-9-10--------------
                                                                              

---------------------------------8--------------------------------------------
-------------------------------8------------------10----10--------------------
---------------------------10b-----10br-8-------8-10h12-10-8----8-------------
------------------------------------------10-10--------------10---------------
 All the people down there                                                    

----------------------------------------------------13h14----13---------------
-------------------------------------------13-16-13-------16----16------------
----------------------------------------15-------------------------17-15------
 Livin' for their whiskey whine and gin                                       

-17----------------15---------------------------------------------------------
----17-17\15-13-------14h15-14h15-14h15-13b-------13-------------------15-----
----------------15--------------------------15-15----15p13--------------------
-----------------------------------------------------------15-13-14-15--------
                                                                              

-------------------------------------7/8--------------------------------------
-x----------8------------------------7/8--------------------------------------
--x---------8----------------------------10-8---------------------------------
---x---8-10-----------------------------------8*10----------------------------
----10------------------------------------------------------------------------
              I heard a woman scream                                          

--------------------------------------8---------------------------------------
------------------------------------8----------------8------------------------
--------------------------------10b-----10br---------8------------------------
---------------------------------------------10-8-10--------------------------
 Yeah an' I beat it to the door                                               

----------------------------------------------8-------------------------------
--------------------------------------------8---------------------------------
----------------------------------------10b-----10br-8------------------------
-------------------------------------------------------10-8-10----------------
 Some cat was workin' that alley with a                                       

----------------------x--------------------1----------------------------------
------------------8----x-----------------1---1h3---1--------------------------
------------------8-----x--------------1-----1h3---1--------------------------
------------------10\----10\---------3-----------3----------------------------
------------------10\---------------------------------------------------------
 Lord! With a 2x4            Yeah...                                          

-------------------------------------------13\-----------------------8--------
-------------------------------------------13\---------------8-----8---11-----
-------------------------------------------------------------8-10b------------
--------------------------------------------------------8-10------------------
---------------------------------------------------8-10-----------------------
-----------------------------------------------6/8----------------------------
 Alley's the roughest place I've ever been                                    

-8---------------------------8-------------11---------------------------------
-10b10r-8----8---------------8-------------10---------------------------------
----------10---10-8-10-10-10---10-8-------------------------------------------
------------------------------------8-9-10------------------------------------
                                                                              

---------------------------15\------------------------------------------------
---------------------------15\------------------------------------------------
------------------------------------------8-----------------------------------
-------------------------------------8-10---10-8------------------------------
-------------------------------/8-11------------------------------------------
 All the people down there                                                    

---------------------------------------------11-------------------8-----------
---------------------------------------11-13----13v-11-8----------8-----------
---------------------------------------------------------10b-10-8-------------
 Livin' for their whiskey wine and gin                                        

------------------------------------------------8-----------------------------
------------x----------8------------------------8-----------------------------
--------10---x---------8------------------------8-----------------------------
--------------x---8-10--------------------------10--10*8----------------------
-8-9-10-10-----10-------------------------------10----------------------------
------------------------------------------------8-----------------------------
                         I heard a pistol shoot                               

----------------------11-------------8----------------------------------------
-------------------------10b-8-10----8----------------------------------------
----------------------------------10------------------------------------------
 Yeah and it was a 44                  Somebody killed a crap shooter 'cause  

-----------------8-----------------------13\----------------------------------
---------------8-------------------------13\----------------------------------
-----------10b-----10br-8-----------------------------------------------------
--------------------------10-8-8*10-------------------------------------------
 he didn't                          shake! rattle and roll.  hey...           

-----1-------------------------------------------------------13\--------------
---1-------------1-------------------------------------------13\--------------
-1-----3h5p3\1---1------------------------------------------------------------
---------------3--------------------------------------------------------------
                   Alley's the roughest place I've ever been                  

-----------------------8------------------------------------------------------
---------------8-----8---11-8---------------------------x---------11----------
---------------8-10b--------10b-10-8-----------8---------x--------10----------
----------8-10-----------------------10-8------8----------x-------------------
-----8-10---------------------------------10-8---8-8*10----8-9-10-------------
-6/8--------------------------------------------------------------------------
                                                                              

---------------------------------8--------------------------------------------
-------------------------------8---------------8------------------------------
---------------------------10b-----10br-8------8------------------------------
------------------------------------------10-8--------------------------------
 All the people down there                                                    

 killin' for their whiskey whine and gin (solo..)                             

-11-11-11---------------------------------6-8--8------------------------------
-13-11h13-11-10-8---------x-------------------------------11------------------
----------12-10-8-8--------x-----------8--8-10-10-10-8-------10b-10-8----8----
------------------10--------x---8-10-8-----------------10-------------10------
---------------------8*10----10-----------------------------------------------
 (trem picked......)                                                          

-----------------------------------------13h14p13\11-13-11----------11--------
----8---------------------------13-16-13-------------------13-11-13-----------
-10---8-------8--------------15-----------------------------------------------
--------10-10---10-8----------------------------------------------------------
---------------------10-9-8---------------------------------------------------
                                                                              

---------8------------------6/8-----------------------------------------------
-13p11\8---8--------------8-6/8-11-11-10-8---------11-------------------------
-------------9/10-8----10------------------10-8-------10b-10-10-8-------------
--------------------10--------------------------10----------------10-10-8-----
                                                                              

---------------------------------------11------------------8------------------
-----------------------8-10-11-10-8-------10b-10-8----8-10---8----------------
------------------8-10--------------10-------------10----------10p8-----------
-9-8-------8-9-10---------------------------------------------------10p8------
------8-11--------------------------------------------------------------------
                                                                              

-------11------11----14-13-11h13-11-------11----------------------------------
-11-13----13v-----13----------------13-13----13-11----13---------------11-----
---------------------------------------------------12----12-11\10-8-----------
                                                                              

----------------8h11----------------------------------------------------------
-10br-8----8h10------10p8-10/11\10-8----10-8----------------------------------
--------10---------------------------10------10-8h10-8-------------8*10-------
-------------------------------------------------------10-9-8-----------------
--------------------------------------------------------------11-8------------
                                                                              

-------8--------8-------------------------------------------------------------
-----8---11-8-8-----------------------------------10--------------------------
-10b--------------10/11\10-8----------------12-10----12-12h13p12-12p10--------
-----------------------------10-8*10--10-12----------------------------12p10--
                                                                              

------------------------------------------------1--------13----13----13-------
------------------------------------------------1-----------------------------
----10-11-12-12h13p12-10-12-10---------------------------13-13-15-13-15-13----
-12----------------------------12-10-12-----------/15-15----------------------
----------------------------------------15\-13\-------------------------------
                                                                              

-13-------13------------------------------------------------------------------
---------------------------------8--------------------------------------------
-15h16-15-13h15-13-------------8---10-8b-8------------------------------------
-------------------15-13*15-10-------------10-10--8---------------------------
----------------------------------------------------10-9-8--------------------
-----------------------------------------------------------11-----------------
                                                                              

-/8-8-------------------------------------------------------------------------
-/8-8-/8-8------------------x-------------------8-----------------------------
------/8-8-/8-8-10-----------x--------10--------8-----------------------------
-----------/8-8-10-10-8*10----x--------------10-10----------------------------
-------------------------------8-9-10-----10----------------------------------
                                                                              

--------------------------8---------------------------------------------------
----------------------------8-------------------------------------------------
----------------------10b---8v------------------------------------------------
 I saw a cop standin'          with his hand on his gun                       

-------8-----------------------------------------------------8----------------
-----8------------------8----------------------------------8-------------8----
-10b-----10br-8---------8------------------------------10b-----10br-8----8----
----------------10-8-10-----------------------------------------------10------
                          said there's a raid boys now                        

------------------------------1-----------------------------------------------
----------------------------1-------------1-----------------------------------
----------------------------1---3/4\3-1---1-----------------------------------
--------------------------3-------------3-------------------------------------
 Lord! Nobody Run! Hey...                   Alley's the roughest place I've   

-----------15\------------------------------8---------------------------------
-----------15\--------------------8-------8---11-8---8----------8-------------
----------------------------------8---10b--------10b-10r-8------8-------------
---------------------------8-10-8-10-----------------------10-8---10-8-8h10---
--------------------8-9-10----------------------------------------------------
---------------3-/8-----------------------------------------------------------
 ever been                                                                    

---------8----8---------------------------------------------------------------
---------8----8---------------------------------------------------------------
-8h10-10-8h10-8---------------------------------------------------------------
----------------8-9-10--------------------------------------------------------
                                                                              

---------------------------------------3---------8----------------------------
-------------------------------------3-----------8----------------------------
----------------------------------5b-----5br-3--------------------------------
-----------------------------------------------5------------------------------
 Yeah they took me away pan alley                                             

-------------------------------------8------------11-------------------8------
-------------------------------------8-----8-10-8----10/11-8-10-8------8------
-------------------------------------10-10------------------------10-8---10---
 Lord, took me right back to the pen                                          

----------------------7-7/8--/20-20-\11-8---8-----------------------11--------
----------------------7-7/8---------------8---11-8-11-8---------7/8----7/8----
----------------------7-7/8-----------------------------10p8------------------
-8-----------------------------------------------------------10---------------
---10-9-8------8-8h10---------------------------------------------------------
----------11-8----------------------------------------------------------------
                                                                              

-11-----11--------------------------------------------------------------------
----7/8------------11-------------------11------------------------------------
-----------10p8-------10b-10-8----8-10b----10r-8----10br-8----10-8------------
----------------10-------------10----------------10--------10------10-8-------
                                                                              

------8----10-8-----------------8*10------------------------------------------
-8-10---10------10-9-8-9-8----------------------------------------------------
---------------------------11-8-----------------------------------------------





Comments


Popular Stevie Ray Vaughan tabs & chords
Aint Gonna Give Up On Love Tabs
Cold Shot 3 Tabs
Empty Arms 1 Tabs
Lenny 1 Tabs
Love Struck Baby Tabs
Loves Truck Baby (Solo) Tabs
Superstition Live Tabs
Crossfire Ukulele
Superstition Ukulele
Tightrope Ukulele


Song lyrics



↑ Back to top | Tablatures and chords are parodies/interpretations of the original songs. You may use it for private study, scholarship, research or language learning purposes only
© 2014 AZChords.com Contact us | Privacy policy | DMCA | Add/correct tabs | Request tabs | Top 50 tabs