>
 >
Testify

Testify Guitar Tabs

Stevie Ray Vaughan - Testify chords, tabs, tablatures, lyrics

Guitar lessons | Add/correct | Request | Top 50 tabs Artists:  A B C D E F G H I J K L M N O P Q R S T U V W X Y Z 0-9

Testify Guitar Tabs – Stevie Ray Vaughan

CD, Sheet music, Poster

Do you like Testify? Share with your friends now
TabsTabs v2
pm
                                e7#9 //                             repeat
|---------------------|--------------------|---------------------I|------------
|---------------------|----------8----8----|-8-------------------I|------------
|---------------------|----------7----7----|-7-------------------I|-o----------
|---------------------|---------(6)--(6)---|(6)------------------I|-o----------
|-----------5--5--6--6|-7--7-----7----7----|-7--------5--5--6--6-I|----7--7----
|--67---7------------|-------0-----------0|----67-7------------I|------------

       // pm    five times                                ///
|---------------------------------|I------------------|---------------------|-|
|---8----8-----8------------------|I------------------|---------------------|-|
|---7----7-----7----------------o-|I------------------|---8---------8-X-X--|-|
|--(6)--(6)---(6)---------------o-|I------------------|---7---------7-X-X--|-|
|---7----7-----7--------5-5-6-6---|I--7---------------|---------------------|-|
|0----------0-----67-7-----------|I-----4--5----6---6|-7-------------------|-|

                   //
|---------------------------|--------------------------------------------------
|---------------------------|--------------------------------------------------
|14bfull(14)/12---12--------|--------------------------------------------------
|---------------14-----14/12|--------------------------------------------------
|---------------------------|--------------------------------------------------
|---------------------------|--------------------------------------------------





Comments


Popular Stevie Ray Vaughan tabs & chords
The House Is Rockin' Bass Tabs
Voodoo Chile Bass Tabs
Aint Gonna Give Up On Love Tabs
Hug You Squeeze You Intro Tabs
I Wanna Testify Tabs
Life By The Drop Tabs
May I Have A Talk With You Tabs
Pride And Joy 2 Tabs
Voodoo Chile Tabs
Tightrope Ukulele


Song lyrics



↑ Back to top | Tablatures and chords are parodies/interpretations of the original songs. You may use it for private study, scholarship, research or language learning purposes only
© 2014 AZChords.com Contact us | Privacy policy | DMCA | Add/correct tabs | Request tabs | Top 50 tabs