» » »

Stevie Ray Vaughan, Loves Truck Baby Tabs (ver.1)

Artists:  A B C D E F G H I J K L M N O P Q R S T U V W X Y Z # 

Loves Truck Baby Tabs (ver.1)

Stevie Ray Vaughan Tabs
 Rating:
4/5 (4 votes)
Loves Truck Baby lessons Tabs too difficult? Try these video lessons and learn fast
1
                (Solo)
Artist - Stevie Ray Vaughan
Song - Loves Truck Baby (Solo)

Tuning: Standard
Key:
 h  - hammer-on
 b  - bend


e|--5-5-5-5-5-5-5-5--8b--8b-----8---8---8--8--8--8---5-5-----5-5-----5----|
B|--5-5-5-5-5-5-5-5--7b--7b-----7b--7b--7b-7b-7b-7b--5-5-----5-5-----5----|
G|-------------------8---8b------------------------------7b9-----7b9------|
D|------------------------------------------------------------------------|
A|------------------------------------------------------------------------|
E|------------------------------------------------------------------------|

e|---5-8b9-5------5-----5------------5-----------------------5------------|
B|---5-----5-8b10-5-----5--------5---5-5---5-----5---5-x-x-7-5-5---5-5----|
G|------------------7b9---5b-----7b9---7b9---6---5-x-5h6-x-7-x-5h6-5-7b9--|
D|---------------------------7-x---------------7-5-x-5---x-7---5----------|
A|-----------------------------x------------------------------------------|
E|------------------------------------------------------------------------|

e|--5-----------5-5--8-7-5---------5-----5-5-----5-5-----5----------------|
B|--5-7-5-------5-5--8-7-5-8-7-5---5-----5-5-----5-5-7-5-5-5-7-5---5-7-5--|
G|----7-5---7b9------------8-7-5-5-5-7b9-----7b9-----7-5-6-5-7-5h6-5-7-5h-|
D|--------7----------------------7---------------------------7-5-----7-5--|
A|------------------------------------------------------------------------|
E|------------------------------------------------------------------------|

e|---------0-8------8------8------8-----8----8---8-------8----8----12-12--|
B|---------5-7b8----7b-----7b8----7b8---7b8--7---7-------7----7----12-12--|
G|-6-5---7-7-8b9----8b9----8b9----8b9---8b9--8b9-8b9-----8b9--8b9--12-12--|
D|---5-7-6-6-------------------------------------------------------11-11--|
A|-------7-7-------------------------------------------------------12-12--|
E|------------------------------------------------------------------------|

e|--11-12-13-14-15-16-17--16-17--17--17--17-17--17--17-17-17-17---17---5--|
B|--11-12-13-14-15-16-17--16-17--17--17--17-17--14--14-14-14-14---14---5--|
G|--11-12-13-14-15-16-17--16-17--17--17--17-17--16--16-16-16-16---16------|
D|--10-11-12-13-14-15-16--15-16--16--16--16-16----------------------------|
A|--11-12-13-14-15-16-17--16-17--17--17--17-17----------------------------|
E|------------------------------------------------------------------------|

e|--5-5-----5-5-5-8-7-5--------------5-----5-7-5-5----5-7-5---5-7-5----5--|
B|--5-5-----5-5-5-8-7-5-8-7-5--------5-----5-7-5-5----5-7-5---5-7-5----5--|
G|------7b9-------------8-7-5----5b7-5-5---5-7-5-5h6----7-5h6---7-5h6-----|
D|----------------------------7--7-----7b9--------------------------------|
A|------------------------------------------------------------------------|
E|------------------------------------------------------------------------|

e------------17----17--17-17---17--17--17-17-----17---17-17---17---17--17-|
B---5--------14----14--14-14---14--14--14-14-----14---14-14---14---14--14-|
G---7--------16----16--16-16---16--16--16-17-----16---16-16---16---16--16-|
D---6---------------------------------------------------------------------|
A-7-7---------------------------------------------------------------------|
E-------------------------------------------------------------------------|

e|-17-----17-17-17-17---17-16-17--16-17-16-17---17--17-17---17\-----5-----|
B|-17-----17-17-16-17---17-16-17--16-17-16-17---17--17-17---17\-----5-5---|
G|-17-----17-17-16-17---17-16-17--16-17-16-17---17--17-17---17\-------7b9-|
D|-16-----16-16-15-16---16-15-16--15-16-15-16---16--16-16---16\-----------|
A|--------17-17-16-17---17-16-17--16-17-16-17---17--17-17---17\-----------|
E|------------------------------------------------------------------------|

e|--5-5-5-5-8-7-5-----------5---5-5-----5-5-7-5-----7-5-----7-5-----------|
B|--5-5-5-5-8-7-5-8-7-5---5-5---5-5-5---5-5-7-5-----7-5-----7-5-------5-5-|
G|----------------8-7-5---5-7b9-----7b9-----7-5h6---7-5h6---7-5h6-----7-7-|
D|----------------------7-------------------------7-------7-------7---6-6-|
A|------------------------------------------------------------------7-7-7-|
E|------------------------------------------------------------------------|
            
Submit corrections

comments powered by Disqus
↑ Back to top | Stevie Ray Vaughan Tabs for Loves Truck Baby. Lyrics for acoustic guitar and electric guitar. 1 Tablatures and chords are parodies/interpretations of the original songs. You may use it for private study, scholarship, research or language learning purposes only