>
 >
Life From The Drop

Life From The Drop Guitar Tabs

Stevie Ray Vaughan - Life From The Drop chords, tabs, tablatures, lyrics

Guitar lessons | Add/correct | Request | Top 50 tabs Artists:  A B C D E F G H I J K L M N O P Q R S T U V W X Y Z 0-9

Life From The Drop Guitar Tabs – Stevie Ray Vaughan

CD, Sheet music, Poster

Do you like Life From The Drop? Share with your friends now
Tabs
Stevie Ray Vaughan
Life From the Drop
The Sky Is Crying

I tried to get as close as i can with this tab.You gotta listen a little, especially the 
     Intro

E||----------------------------------------|------------------------|
B||----------------------------------------|------------------------|
G||-----------------1-------------1--------|------------------------|
D||-----------1-2-3---1-2-1---1------3--2--|--1-2-1-----------------|
A||--1-----4----------------4---4----------|---------4--6-----------|
E||----------------------------------------|---------------6--6--6--|

------------------------------|----------------------------|
------------------------------|----------------------------|
------------------------------|----------------------------|
--8--8---8---8--8--8---8---8--|--------------8--8---8---8--|
--8--8--10--10--8--8--10--10--|--------------8--8--10--10--|
--6--6---6---6--6--6---6---6--|--9--6--6--6--6--6---6---6--|


  Verse 1

---------------------|------------------------------|
---------------------|------------------------------|
---------------------|------------------------------|
--8-------8---8---8--|--8--8---8---8--8--8---8---8--|
--8-------8--10--10--|--8--8--10--10--8--8--10--10--|
--6-------6---6---6--|--6--6---6---6--6--6---6---6--|


----------------------------------|--------3-------3------|
----------------------------------|--------4-------4------|
--10--10--10--10--10--10--12--12--|--------3-------3------|
--10--10--12--12--10--10--12--12--|--5--5--5----5--5------|
---8---8---8---8---8---8---8---8--|--5--5--5----5--5------|
----------------------------------|--3--3--3----3--3------|

------------------------------|------------------------------|
------------------------------|------------------------------|
--8--8---8---8--8--8---8---8--|------------------------------|
--8--8--10--10--8--8--10--10--|--8--8---8---8--8--8---8---8--|
--6--6---6---6--6--6---6---6--|--8--8--10--10--8--8--10--10--|
------------------------------|--6--6---6---6--6--6---6---6--|


----------------------------------|--------3---------3----|
----------------------------------|--------4---------4----|
--10--10--10--10--10--10--10--10--|--------3---------3----|
--10--10--12--12--10--10--12--12--|--5--5--5----5----5----|
---8---8---8---8---8---8---8---8--|--5--5--5----5----5----|
----------------------------------|--3--3--3----3----3----|

------------------------------|--------3----------3----|
------------------------------|--------4----------4----|
--8--8---8---8--8--8---8---8--|------------------------|
--8--8--10--10--8--8--10--10--|--5--5-------5--5-------|
--6--6---6---6--6--6---6---6--|--5--5-------5--5-------|
------------------------------|--3--3-------3--3-------|

------------------------------|--------3----------3----|
------------------------------|--------4----------4----|
--8--8---8---8--8--8---8---8--|------------------------|
--8--8--10--10--8--8--10--10--|--5--5-------5--5-------|
--6--6---6---6--6--6---6---6--|--5--5-------5--5-------|
------------------------------|--3--3-------3--3-------|


                                 Chorus

--6------------8--------------|--7------6----1--------|
--6------------8--------------|--8------8----1--------|
--8--8--8--8--10--10--10--10--|--7------8----1--------|
--8--8--8--8--10--10--10--10--|--5------8----3--------|
--6--6--6--6---8---8---8---8--|---------6----3--------|
------------------------------|--------------1--------|


  Interlude 1

---------------------------------------|------------------------------|
---------------------------------------|------------------------------|
---------------------------------------|------------------------------|
--8-----------8---8---8--8--8---8---8--|--8--8---8---8--8--8---8---8--|
--8-----------8--10--10--8--8--10--10--|--8--8--10--10--8--8--10--10--|
--6-----------6---6---6--6--6---6---6--|--6--6---6---6--6--6---6---6--|

----------------------------------|--------3----------3----|
----------------------------------|--------4----------4----|
--10--10--10--10--10--10--10--10--|--------3----------3----|
--10--10--12--12--10--10--12--12--|--5--5--5----5--5--5----|
---8---8---8---8---8---8---8---8--|--5--5--5----5--5--5----|
----------------------------------|--3--3--3----3--3--3----|

------------------------------|------------------------------|
------------------------------|------------------------------|
--8--8---8---8--8--8---8---8--|------------------------------|
--8--8--10--10--8--8--10--10--|--8--8---8---8--8--8---8---8--|
--6--6---6---6--6--6---6---6--|--8--8--10--10--8--8--10--10--|
------------------------------|--6--6---6---6--6--6---6---6--|

----------------------------------|--------3----------3----|--6----------------|
----------------------------------|--------4----------4----|--6----------------|
--10--10--10--10--10--10--10--10--|--------3----------3----|--8----------------|
--10--10--12--12--10--10--12--12--|--5--5--5----5--5--5----|--8----------------|
---8---8---8---8---8---8---8---8--|--5--5--5----5--5--5----|--6----------------|
----------------------------------|--3--3--3----3--3--3----|-------------------|


                          |----3----|     |-----3-----|

--------3---------3----|--6----6----6-----8-----8-----8----|
--------4---------4----|--8----8----8----10----10----10----|
--------3---------3----|--8----8----8----10----10----10----|
--5--5--5----5----5----|--8----8----8----10----10----10----|
--5--5--5----5----5----|--6----6----6-----8-----8-----8----|
--3--3--3----3----3----|-----------------------------------|


                           |----3----|     |-----3-----|

--------3----------3----|--6----6----6-----8-----8-----8----|
--------4----------4----|--8----8----8----10----10----10----|
--------3----------3----|--8----8----8----10----10----10----|
--5--5--5----5--5--5----|--8----8----8----10----10----10----|
--5--5--5----5--5--5----|--6----6----6-----8-----8-----8----|
--3--3--3----3--3--3----|-----------------------------------|


  Chorus

---------6----1--------|------------------------------|
--7------8----1--------|------------------------------|
--8------8----1--------|------------------------------|
--7------8----3--------|--8--8---8---8--8--8---8---8--|
--5------6----3--------|--8--8--10--10--8--8--10--10--|
--------------1--------|--6--6---6---6--6--6---6---6--|


                                 Verse 3

------------------------------|-----------------------------------|
------------------------------|-----------------------------------|
------------------------------|-----------------------------------|
--8--8---8---8--8--8---8---8--|--8-------8---8---8--8--8---8---8--|
--8--8--10--10--8--8--10--10--|--8-------8--10--10--8--8--10--10--|
--6--6---6---6--6--6---6---6--|--6-------6---6---6--6--6---6---6--|

----------------------------------|--------3----------3----|
----------------------------------|--------4----------4----|
--10--10--10--10--10--10--10--10--|--------3----------3----|
--10--10--12--12--10--10--12--12--|--5--5--5----5--5--5----|
---8---8---8---8---8---8---8---8--|--5--5--5----5--5--5----|
----------------------------------|--3--3--3----3--3--3----|

--3-------6--6-----------|------------------------------|
--4-------8--8-----------|------------------------------|
----------8--8--------8--|------------------------------|
----------8--8--6--8-----|--8--8---8---8--8--8---8---8--|
-------6-----------------|--8--8--10--10--8--8--10--10--|
-------------------------|--6--6---6---6--6--6---6---6--|

----------------------------------|--3----------------|--------------------|
----------------------------------|--4----------------|--11----------------|
--10--10--10--10--10--10--10--10--|--3----------------|--12----------------|
--10--10--12--12--10--10--12--12--|--5----------------|--11----------------|
---8---8---8---8---8---8---8---8--|--5----------------|--------------------|
----------------------------------|--3----------------|--12----------------|

------3--3------3--3----|--11------------------------------|
------4--4------4--4----|--13------------------------------|
------3--3------3--3----|--13------------------------------|
------5--5------5--5----|--13------------------------------|
------5--5------5--5----|--11------10------10--------------|
--3---3--3--3---3--3----|--11--13------13------13--13--11--|

--------3--3--------3--3--|----------------------------------|
--------4--4--------4--4--|----------------------------------|
--------3--3--------3--3--|----------------------------------|
--------5--5--------5--5--|----------------------------------|
--------5--5--------5--5--|----------10------10--10----------|
--3--3--3--3--3--3--3--3--|--11--13------13----------13--10--|


  Chorus

---------3----6----3----|------------------------------|
---------4----8----5----|------------------------------|
--------------8----5----|------------------------------|
--------------8----5----|--8--8---8---8--8--8---8---8--|
--------------6----3----|--8--8--10--10--8--8--10--10--|
--3---------------------|--6--6---6---6--6--6---6---6--|


                                  Chorus
        |--3--|

-------------------------------|--7------6----1--------|
-------------------------------|--8------8----1--------|
-------------------------------|--7------8----1--------|
--8--8-----------8--8---8---8--|--5------8----3--------|
--8--8-----------8--8--10--10--|---------6----3--------|
--6--6--9--6--6--6--6---6---6--|--------------1--------|


                      |--3--|                          |---3--|

-------------------------------|---------------------------------|
-------------------------------|---------------------------------|
-------------------------------|---------------------------------|
--8--8---8---8--8--8-----------|--8--8---8---8--8--8---8--8---8--|
--8--8--10--10--8--8-----------|--8--8--10--10--8--8--10--8--10--|
--6--6---6---6--6--6--9--6--6--|--6--6---6---6--6--6---6--6---6--|

--7----6----1----6----||
--8----8----1----6----||
--7----8----1----7----||
--5----8----3----8----||
-------6----3----8----||
------------1----6----||





Comments


Popular Stevie Ray Vaughan tabs & chords
Couldn't Stand The Weather 1 Bass Tabs
Riviera Paradise Bass Tabs
Life By The Drop Chords
Compilation Tabs
Crossfire (Solo) Tabs
Life By The Drop 3 Tabs
Sky Is Crying 1 Tabs
So Excited 1 Tabs
Testify 1 Tabs
Crossfire Ukulele


Song lyrics



↑ Back to top | Tablatures and chords are parodies/interpretations of the original songs. You may use it for private study, scholarship, research or language learning purposes only
© 2014 AZChords.com Contact us | Privacy policy | DMCA | Add/correct tabs | Request tabs | Top 50 tabs