» » »

Life By The Drop Tabs (ver.1)

Artists:  A B C D E F G H I J K L M N O P Q R S T U V W X Y Z # 

Life By The Drop Tabs (ver.1)

Stevie Ray Vaughan
Rating:
0/5 (0 votes)

Hard to play? Try these video lessons and learn fast.
                Artist Stevie Ray Vaughan
Song Life by the Drop
Album The Sky is Crying
Tuning  Standard

Intro:
/      /      /         /        |/     /        /     /      |  A
---------------------------------|----------------------------|-------
---------------------------------|----------------------------|-------
------------0---------------0-h2-|0-------------------------2-|------- ...
-----0-1-h2---0-h1-p0---0--------|--2-1-0-h1-0---0---0--------|---2---2h4-
0-h3------------------3---3------|-------------3---3---3-p0---|---0---0-0-
---------------------------------|----------------------------|-----------

|A            |E7             |F#min                  |D7
|/  /  /  /   |/  /  /  /     |/  /  /  /             |/  /  /  /
|Hello there  |my old friend, |not so long ago it was |still the end

|A           |E7                 |F#min                 |D7
|/  /  /  /  |/  /  /  /         |/  /  /  /            |/  /  /  /
|late outside|in the pouring rain|on our way up the road|we started over again

|F#min           |D7               E7
|/  /  /  /      |/  /             /  /
|living a dream  |as though you're on top  (?)

|F#min             |D7            E7
|/  /  /  /        |/  /          /  /
|my mind is aching |Lord it won't stop

|F#min         D7              |E7           |A          |A
|/  /          /  /            |/  /         |/  /  /  / |/  /  /  /
|that's how it happened living |life by the  |drop       |
                                ^---- only 2/4 here


|Up and down the road in our |worn out shoes
|talking about good things and |singing the blues
|you went your way and |I stayed behind
|we both knew it was just a |matter of time
|living a dream as |though you're on top
|my mind is aching |Lord it won't stop
|that's how it happens living |life by the |drop / / /| / / / /|

|No waste of time we |??...?? the day
|turning up the past, there's no |easier way
|time's been between us a |means to an end (???)
|God, it's good to be here, walking |together my friend
|living a dream |  
|my mind starts thinking|  
|that's how it happened living |life by the |drop / / /|
|that's how it happened living |life by the |drop / / /|



/         /         /        /         |  F#min
---------------------------------------|-------2-
---------------------------------------|-------2-
---------------------------------------|-------3-   ...
0---2--2h4------2----------2-2h4--2----|-------4-
-------------------------------------4-|-------4-
---------------------------------------|--2--2---
            
Hard to play? Try these video lessons and learn fast. | Correct




comments powered by Disqus
↑ Back to top | Tablatures and chords are parodies/interpretations of the original songs. You may use it for private study, scholarship, research or language learning purposes only