» » »

Stevie Ray Vaughan, Give Me Back My Wig Tabs (ver.1)

Artists:  A B C D E F G H I J K L M N O P Q R S T U V W X Y Z # 

Give Me Back My Wig Tabs (ver.1)

Stevie Ray Vaughan Tabs
 Rating:
3.7/5 (6 votes)
Give Me Back My Wig lessons Tabs too difficult? Try these video lessons and learn fast
                (Intro)
This one is an easy 12-bar shuffle w. slide chords.  Tune the third string up one half-
step so that when you slide, you have a full three-note chord.
(hint. wear slide on your little finger to allow normal fretting w. other three)


Intro

-0-0-0-----------------0-0-0-----------------0-0-0-----------------|
-0-0-0-2-2-3-3-2-2h3p2-0-0-0-2-2-3-3-2-2h3p2-0-0-0-2-2-3-3-2-2h3p2-|
---0-0-1-1-1-1-1-1-------0-0-1-1-1-1-1-1-------0-0-1-1-1-1-1-1-----|
-------------------------------------------------------------------|
-------------------------------------------------------------------|
-------------------------------------------------------------------|


-0-0-0-----------------/5-5---------------5-5---------------0-0-----|
-0-0-0-2-2-3-3-2-2h3p2-/5-5-7-7-8-8-7h8p7-5-5-7-7-8-8-7h8p7-0-0-2-2-|
---0-0-1-1-1-1-1-1-----/5-5-6-6-6-6-6-----5-5-6-6-6-6-6-----0-0-1-1-|
--------------------------------------------------------------------|
--------------------------------------------------------------------|
--------------------------------------------------------------------|


--------------7---------------------5---------------0-0---------------|
-3-3-2h3p2----7-9-9-10-10-9h10p9----5-7-7-8-8-7h8p7-0-0-2-2-3-3-2h3p2-|
-1-1-1-----/7---8-8-8--8--8------/5---6-6-6-6-6-------0-1-1-1-1-1-----|
----------------------------------------------------------------------|
----------------------------------------------------------------------|
----------------------------------------------------------------------|


-0-0-0---------------|
-0-0-0-2-2-3-3-2h3p2-|
---0-0-1-1-1-1-1-----|
---------------------|
---------------------|
---------------------|


Okay, bring you A-Game it's time for some slide.

---//12~~---------//12~~---------//12~~-12~~-12~~-12~~----------//5~~-|
---//12~~---------//12~~---------//12~~-12~~-------12~~---------//5~~-|
---//12~~---------//12~~---------//12~~---------------12~~------//5~~-|
---------------------------------------------------------14~~---------|
----------0-1-2----------0-1-2--------------------------------0-------|
-0--------------0--------------0--------------------------------------|


---------//5~~---------//12~~-------------12~~-12-12---------------12-12-12-|
---------//5~~---------//12~~---------//12----------15-12\11/12~~-----------|
---------//5~~---------//12~~---------//12----------------------------------|
-0-1-2----------------------------------------------------------------------|
-------0-------0-1-2----------0-1-2-----------------------------------------|
---------------------0--------------0---------------------------------------|


-----------------0-0-0---------------0-0---------------|  To keep going,
-12--------------0-0-0-2-2-3-3-2h3p2-0-0-2-2-3-3-2h3p2-|  repeat the intro
----12~~-----------0-0-1-1-1-1-1-----0-0-1-1-1-1-1-----|  over and over.
---------12-14~~---------------------------------------|  Solo to follow!
-------------------------------------------------------|
-------------------------------------------------------|
            
Submit corrections

comments powered by Disqus
↑ Back to top | Stevie Ray Vaughan Tabs for Give Me Back My Wig. Lyrics for acoustic guitar and electric guitar. Tablatures and chords are parodies/interpretations of the original songs. You may use it for private study, scholarship, research or language learning purposes only