» » »

Stevie Ray Vaughan, Ain Gonna Give Up On Love Tabs (ver.1)

Artists:  A B C D E F G H I J K L M N O P Q R S T U V W X Y Z # 

Ain Gonna Give Up On Love Tabs (ver.1)

Stevie Ray Vaughan Tabs
 Rating:
4/5 (4 votes)
Ain	 Gonna Give Up On Love lessons Tabs too difficult? Try these video lessons and learn fast
                Ain't Gonna Give Up On Love
Stevie Ray Vaughan


Intro:
--------------6--4---4---4---4-7-4--------------------------------------4-----6----4
-------------------4---4---4--------7-4-----------------------4--------------------
6brp4---(2)-6---------------------------6b-6b-6brp4---(2)--6b---6b-4-5----6b---4b--
------6---------------------------------------------6-------------------------------

G#m            
I ain't gone 'n' give up on love
C#7                   G#m  1
Love won't give up on me
C#7                            
I ain't gone 'n' give up on love
                              G#m  2
Love ain't gone 'n' give up on me
D#7
Every tear that I've cried
C#7
Only washed away the fear inside
                             G#m        C# G#m D#7  3
Now I, I ain't gone 'n' give up on love

Every beat of my heart     4
Pounds with joy and not with pain
Every beat of my heart
Pounds with joy and not in vain  5
And although those are painful memories  
Only brought me to my knees
I was just given up on love  6

C#7                          G#m
Little Johnny Taylor told us so long ago
What about the midnight cryin'
Wo that cheatin' and lyin'
What about the price that will
Oh surely be paid
D#7
Those that gave up on love
Love will have it's day
I ain't givin' up on love

Solo.

--------9b-7------7b-------7-9b-9b'-9~-7---------7br--9b--9b-8b-7--7b'-7b-8b-9b---9b
9~--9-9------9-9b------9-9---------------9-9--9-9---9------------9------------------

-9b-9b-7-7br---------------------7-9b(7)-p7--9b-9b---9b--7--------7b------7-9b-9--9b
-------------9v-7-4----------9-9------------9--------------9--9-9----9--9-----------
--------------------6b-6'-4---------------------------------------------------------

-9br-9br-9br-7---9b-7-----------------------17--17---17---20b-20-17--17~-17-17-20b--
---------------9------9-7---------------------17---17--17--------------------------
--------------------------8-6b-6b-6b-6-4--(3)--------------------------------------

-17-17-17-17-17-17-20b-r-17-17-17-20b-20-17-20-17--20b/-20b-20-17-17-17-20b-20b/-20b
-----------------------------------------------------/------------------------------

--20b//-20b-20-17---------------9b-7-----7---9b-------7-9b-9b-9b-7------------------
------------------\\\------(3)-------9-7---9------9-9--------------9-9~-7-----------
---------------------4b---------------------------------------------------8-6b~~//--
------------------------6-----------------------------------------------------------

--9br---7b'-7b//--(9)-9-9-7-9-9b---12b(11)--------------------------------4-4-4-------9~------------------------------------12-9---7-4------------------------4-4-4----------------------------------------------------------6b-6b-6p4--(3)-(i.s)-4-4-4-----

--------4--
-----------
--6v-6v----
-----------
-----------
-----------

I ain't gone 'n' give up on love
Love won't give up on me  7
I ain't gone 'n' give up on love
Love won't give up on me  8
Every time I cry
Love just won't let me be
Won't set me free  9

--4-7-4-----------4---4-7b-4------9b-9b-9b-7----7----------------------6------------
4-------7-4----(4)--7---------7-9------------9----9-7-------------------------------
------------6b----------------------------------------6b--(1st r.)--6b--------------
(1)                                  (2)

----4---4-7-4----9b--7----7-------------------------4-7b--9b-7----9b--7-----7-------
------4----------------9----9-7----------(3)-(1)..7------------9--------9-----9-----
-6b-----------------------------6b-6b-p4----------------------------------8---------
(3)              (4)                            (5)                     (6)

-9b-9-7--------------4-----4-7-4-----------7--6---9b-9b'-7--------------9b--9b-7---
--------9-7------------4-4-------4-------------------------9-7------------9------9-
------------8-6vp4--4--------------6b~~~6b--6v-----------------8-6b-p4-------------

(7)                        (8)                            (9)

-------------------
-7-----------------
---8-6br-4-----6b--
-------------6-----
-------------------
-------------------
            
Submit corrections

comments powered by Disqus
↑ Back to top | Stevie Ray Vaughan Tabs for Ain Gonna Give Up On Love. Lyrics for acoustic guitar and electric guitar. Tablatures and chords are parodies/interpretations of the original songs. You may use it for private study, scholarship, research or language learning purposes only