>
 >
Crossroads

Crossroads Guitar Tabs

Steve Vai - Crossroads chords, tabs, tablatures, lyrics

Guitar lessons | Add/correct | Request | Top 50 tabs Artists:  A B C D E F G H I J K L M N O P Q R S T U V W X Y Z 0-9

Crossroads Guitar Tabs – Steve Vai

CD, Sheet music, Poster

Do you like Crossroads? Share with your friends now
Tabs
Eugene's Trick Bag - famous guitar duel from the movie named Crossroads !

-----------------------------8--12-8---------------------------------
-------------------------10-----------10-----------------------------
----------------------9-------------------9--------------------------
----------------7--10------------------------10--7-------------------
--------------7------------------------------------------------------
--------5--8----------------------------------------10--8------------ 

--------------------------7------------------------------------------
-----------------------9-----9---------------------------------------
-----------------7--9-----------9--7---------------------------------
-----------6--9-----------------------9--6---------------------------
-----5--7-----------------------------------7--5---------------------
--7------------------------------------------------------------------

-------------------------5-------------------------------------------
-------------------5--8-----8--5-------------------------------------
----------------6------------------6---------------------------------
----------5--7-------------------------7--5--------------------------
----4--7--------------------------------------7--4-------------------
-5------------------------------------------------------------------- 

----------------------------10---13---10-----------------------------
-----------------------10-----------------10-------------------------
---------------7--10--------------------------10--7------------------
------------7----------------------------------------7---------------
-----5---8-----------------------------------------------------------
--5------------------------------------------------------10---8------ 

--------------------------9---12---9---------------------------------
----------------------10---------------10----------------------------
---------------9--12-----------------------12--9---------------------
--------8--11--------------------------------------11---8------------
-7--10------------------------------------------------------7-------- 

----------------------------------------5-------8--------12---8/16---
--------------------------------5-----------5-------10---------------
-----------------------5------------5--------------------------------
---------------7------------7----------------------------------------
------7------------7-------------------------------------------------
--5-------8--------------------------------------------------------0- 

Ovo 2 puta 
--------------------------------------17--15--13---------------------
-----13--17--13-------15--17--15--13--------------17--15--13---------
-14---------------16-------------------------------------------16----

------------------17--15--13--------------19--17--15-----------------
-----14---17--14--------------17--14--15--------------18--17--15-----
-14------------------------------------------------------------------

------------------------------------17--15--13-----------------------
--------15------18--17--15----------------------17--15--13-----------
----16------16--------------16--17--------------------------16-------
17-------------------------------------------------------------------

-----------------13---------------------13-------------17------------
---------13----------17--15--13------------15-------------17---------
-----14------14------------------13--16--------14--17----------------
-15------------------------------------------------------------------

----16-------14---------12---------10-------9------7-----5-----4-----
17-----17/15-----15/14-----14/12-----12/10----10/9---9/7---7/5---5---

-7p4---0-----7p4---0-----7p4---0-----7p4---0-------------------------
-----5-----------5-----------5-----------5---------------------------

Ovo ponoviti jos 2 puta (sve skupa 3)

-7p4-----0----14p11------0----17p14-----0----12p9--------0-----------
------5-------------12--------------15--------------10---------------

Ovo se ponovi jos jednom (sve skupa 2)

-19p16-------0----7p4-----0----17p14------0----5p2-----0-------------
---------17------------5--------------15------------3----------------

Ovo se ponovi jos jednom (sve skupa 2)

-22p19--------0----10p7------0-----20p17-------0----8p5------0-------
---------20--------------8----------------18-------------6-----------

22--19-----------19--------------------------------------------------
--------21---18------21--18------21--18-----------18-----------------
-----------------------------19----------19-----------19-------------
---------------------------------------------21-----------21--18-----

19-------------------------------------------------------------------
-----21---18------21---18----------18--------------15----------------
--------------20-----------20--17------20--17--14------17--14--------
--------------------------------------------------------------16-17\-

-----------------------------------------------12------------24------
------------------------------------5--------------------------------
-------2--------------------------------9/---------------------------
-------2-----2--------------------/2-----------------14/-------------
-------0-----2-----------------7\------------------------------------
-------------0--0------(0)--------------------------------0----------
                ^
                AH (u trajanju oko 3 sec)  
         

      
------------------------------------------------------------9--10--12
--------------------------------------------------9/10--12-----------
----------------------------------------7--9--10---------------------
---------------------------6/7--9--10--------------------------------
------------------5--7--8--------------------------------------------
---------5--7--8----------------------------------------------------- 

                                 half  full
				/     /
-13--16--17--19--20--22---24---24---24------??-----------------------





Comments


Popular Steve Vai tabs & chords
Frank Bass Tabs
For The Love Of God Chords
Bad Horsie 1 Tabs
Big Trouble Tabs
Erotic Nightmares Tabs
Guitar Duel Tabs
The Duel Tabs
There Is A Fire In The House Tabs
Warm Regards Tabs
The Duel Ukulele


Song lyrics



↑ Back to top | Tablatures and chords are parodies/interpretations of the original songs. You may use it for private study, scholarship, research or language learning purposes only
© 2014 AZChords.com Contact us | Privacy policy | DMCA | Add/correct tabs | Request tabs | Top 50 tabs