» » »

Wild World Tabs (ver.1)

Artists:  A B C D E F G H I J K L M N O P Q R S T U V W X Y Z # 

Wild World Tabs (ver.1)

Stevens Cat
Rating:
0/5 (0 votes)

Hard to play? Try these video lessons and learn fast.
                WILD WORLD
As recorded by Cat Stevens
(From the 1970 Album TEA FOR THE TILLERMAN)

Words and Music by Cat Stevens

          Am                   D7                    G                    C
      x 0 2 2 1 0          x x 0 2 1 2          3 x 0 0 0 3          x 3 2 0 1 0

Gtr I (E A D G B E) - 'Untitled'

 Intro
  Q=85
  Am        D7          G         C           F         Dm
 4/4
  Gtr I
  E E E S S E E E S S   E E E S S E E E S S   E E E S S E E E S S
|---------------2-2-2-|-----3-3-3-----0-0-0-|-----1-1-1-----1-1-1---|
|-----1-1-1-----1-1-1-|-----0-0-0-----1-1-1-|-----1-1-1-----3-3-3---|
|-----2-2-2-----2-2-2-|-----0-0-0-----0-0-0-|-----2-2-2-----2-2-2---|
|-----2-2-2-0-0-0-0-0-|-----0-0-0-----2-2-2-|-----3-3-3-0-0-0-0-0---|
|-0-0-----------------|-----------3-3-------|-----------------------|
|---------------------|-3-3-----------------|-1-1-------------------|


                          1st & 2nd Verse
  E                Esus4   Am        D7
  E E E. S +S  E S E E     E E E S S E E E S S
|-----0----------------||----------------2-2-2-|
|-----0--------------0-||o-----1-1-1-----1-1-1-|
|-----1--1-(1)-1-1-2---||------2-2-2-----2-2-2-|
|-----2------------2---||------2-2-2-0-0-0-0-0-|
|----------------------||o-0-0-----------------|
|-0-0------------------||----------------------|


  G         C           F         Dm
  E E E S S E E E S S   E E E S S E E E S S
|-----3-3-3-----0-0-0-|-----1-1-1-----1-1-1---|
|-----0-0-0-----1-1-1-|-----1-1-1-----3-3-3---|
|-----0-0-0-----0-0-0-|-----2-2-2-----2-2-2---|
|-----0-0-0-----2-2-2-|-----3-3-3-0-0-0-0-0---|
|-----------3-3-------|-----------------------|
|-3-3-----------------|-1-1-------------------|


  E                Esus4 Am        D7
  E E E. S +S  E S E E   E E E S S E E E S S
|-----0----------------|---------------2-2-2-|
|-----0--------------0-|-----1-1-1-----1-1-1-|
|-----1--1-(1)-1-1-2---|-----2-2-2-----2-2-2-|
|-----2------------2---|-----2-2-2-0-0-0-0-0-|
|----------------------|-0-0-----------------|
|-0-0------------------|---------------------|


  G         C           F         Dm
  E E E S S E E E S S   E E E S S E E E S S
|-----3-3-3-----0-0-0-|-----1-1-1-----1-1-1---|
|-----0-0-0-----1-1-1-|-----1-1-1-----3-3-3---|
|-----0-0-0-----0-0-0-|-----2-2-2-----2-2-2---|
|-----0-0-0-----2-2-2-|-----3-3-3-0-0-0-0-0---|
|-----------3-3-------|-----------------------|
|-3-3-----------------|-1-1-------------------|


                                  $
  E  G          G/F   G/E   G/D
 2/4      4/4
  Q  E E   +Q   E S S E S S E S S
|-0----3-|-(3)--3-3-3-3-3-3-3-3-3-|
|-0----0-|-(0)--0-0-0-0-0-0-0-0-0-|
|-1----0-|-(0)--0-0-0-0-0-0-0-0-0-|
|-2----0-|-(0)--3-3-3-2-2-2-0-0-0-|
|-2----2-|-(2)--------------------|
|-0--0-3-|-(3)--------------------|


 Chorus
  C         G           F
  E E E S S E E E S S   E E E S S S S S S S S S S
|-----0-0-0-----3-3-3-|-----1-1-1------------------|
|-----1-1-1-----0-0-0-|-----1-1-1-1-0--------------|
|-----0-0-0-----0-0-0-|-----2-2-2-----2-0----------|
|-----2-2-2-----0-0-0-|-----3-3-3---------3-2-0----|
|-3-3-----------------|-------------------------3--|
|-----------3-3-------|-1-1------------------------|


  G         F           C                           C         G
  E E E S S E E E S S   E E E S S S S S S S S S S   E E E S S E E E S S
|-----3-3-3-----1-1-1-|-----0-0-0-----------------|-----0-0-0-----3-3-3-|
|-----0-0-0-----1-1-1-|-----1-1-1-----------------|-----1-1-1-----0-0-0-|
|-----0-0-0-----2-2-2-|-----0-0-0-----------------|-----0-0-0-----0-0-0-|
|-----0-0-0-----3-3-3-|-----2-2-2-----------------|-----2-2-2-----0-0-0-|
|---------------------|-3-3-----------0-3-3-3-0---|-3-3-----------------|
|-3-3-------1-1-------|-----------3-3-----------3-|-----------3-3-------|


                                                              To Coda
  F                              G     F           C         G
  E E E S S S S S S S S S S   Q  E S S E E E S S   E E E S S E E E S S
|-----1-1-1-----------------|----3-3-3-----1-1-1-|-----0-0-0-----3-3-3-|
|-----1-1-1-1-0-------------|----0-0-0-----1-1-1-|-----1-1-1-----0-0-0-|
|-----2-2-2-----2-0---------|----0-0-0-----2-2-2-|-----0-0-0-----0-0-0-|
|-----3-3-3---------3-2-0---|----0-0-0-----3-3-3-|-----2-2-2-----0-0-0-|
|-------------------------3-|--------------------|-3-3-----------------|
|-1-1-----------------------|----------1-1-------|-----------3-3-------|


                               Interlude
  C         Dm      E           Am        D7
  E E E S S S S S S S S S S     E E E S S E E E S S
|-----0-0-0-------1-------0--||---------------2-2-2-|
|-----1-1-1-----3-------0---o||-----1-1-1-----1-1-1-|
|-----0-0-0---2-------1------||-----2-2-2-----2-2-2-|
|-----2-2-2-0-------2--------||-----2-2-2-0-0-0-0-0-|
|-3-3-----------------------o||-0-0-----------------|
|----------------------------||---------------------|


  G         C           F         Dm
  E E E S S E E E S S   E E E S S E E E S S
|-----3-3-3-----0-0-0-|-----1-1-1-----1-1-1--|
|-----0-0-0-----1-1-1-|-----1-1-1-----3-3-3--|
|-----0-0-0-----0-0-0-|-----2-2-2-----2-2-2--|
|-----0-0-0-----2-2-2-|-----3-3-3-0-0-0-0-0--|
|-----------3-3-------|----------------------|
|-3-3-----------------|-1-1------------------|


                           3rd Verse
  E                         Am        D7
  E E E S S E S S +S  E.    E E E S S E E E S S
|-----0-0-0--------------||---------------2-2-2-|
|-----0-0-0-----------0--||-----1-1-1-----1-1-1-|
|-----1-1-1-1-1-2-(2)----||-----2-2-2-----2-2-2-|
|-----2-2-2-2-2----------||-----2-2-2-0-0-0-0-0-|
|------------------------||-0-0-----------------|
|-0-0--------------------||---------------------|


  G         C           F         Dm
  E E E S S E E E S S   E E E S S E E E S S
|-----3-3-3-----0-0-0-|-----1-1-1-----1-1-1--|
|-----0-0-0-----1-1-1-|-----1-1-1-----3-3-3--|
|-----0-0-0-----0-0-0-|-----2-2-2-----2-2-2--|
|-----0-0-0-----2-2-2-|-----3-3-3-0-0-0-0-0--|
|-----------3-3-------|----------------------|
|-3-3-----------------|-1-1------------------|


                      D.S. al Coda   &
  E  G          G/F   G/E   G/D        C
 2/4      4/4
  Q  E E   +Q   E S S E S S E S S      W
|-0----3-|-(3)--3-3-3-3-3-3-3-3-3-||---0----*|
|-0----0-|-(0)--0-0-0-0-0-0-0-0-0-||---1----*|
|-1----0-|-(0)--0-0-0-0-0-0-0-0-0-||---0----*|
|-2----0-|-(0)--3-3-3-2-2-2-0-0-0-||---2----*|
|-2----2-|-(2)--------------------||---3----*|
|-0--0-3-|-(3)--------------------||--------*|
            
Hard to play? Try these video lessons and learn fast. | Correct




comments powered by Disqus
↑ Back to top | Tablatures and chords are parodies/interpretations of the original songs. You may use it for private study, scholarship, research or language learning purposes only