» » »

Stevens Cat, Matthew And Son Bass tabs (ver.1)

Artists:  A B C D E F G H I J K L M N O P Q R S T U V W X Y Z # 

Matthew And Son Bass tabs (ver.1)

Stevens Cat Tabs
 Rating:
4/5 (4 votes)
Matthew And Son lessons Tabs too difficult? Try these video lessons and learn fast
                Cat Stevens - "Matthew and Son" - Bass Tab

common time(4/4)
standard tuning(EADG)

INTRO:

|-----------------|-----------------|
|-----------------|-----------------|
|-7-7-7-7-7-7-7-7-|-7-7-7-7-7-7-7-7-|
|-----------------|-----------------|
  1 & 2 & 3 & 4 &   1 & 2 & 3 & 4 &

VERSE 1:

|------------------|-----------------|-----------------|
|*-----------------|-----------------|-----------------|
|*-7-7-7-7-7-7-7-7-|-7-7-7-7-7-7-7-7-|-5-5-5-5-5-5-5-5-|
|------------------|-----------------|-----------------|
   1 & 2 & 3 & 4 &   1 & 2 & 3 & 4 &   1 & 2 & 3 & 4 &
                          _____          _____	
                         |1.            |2.
|-------------|---------|--------------|-----------|
|-.-.---.-----|---------|-------------*|-.---------|
|-7-7---7-----|---------|-------7-7-5-*|-7---7-----|
|-------------|---------|--------------|-----------|
  1 & 2 & 3 4   1 2 3 4   1 2 3 & 4 &    1 2 & 3 4

CHORUS:
                    (x2)                    (x2)
|-----------------------|-----------------------|
|*---------------------*|*---------------------*|
|*---------------------*|*---------------------*| (x2)
|--7-7-7-7-7-7-7-7-7-7--|--5-5-5-5-5-5-5-5-5-5--|
   1 & a 2 & 3 & a 4 &     1 & a 2 & 3 & a 4 

                             (x2)                (x2)
|--------------|------------------|-------------------|
|*-------------|-----------------*|*-----------------*| (play (5)
|*-------------|-------7-7-7-(5)-*|*-7-7-7-7---7-7-7-*|  2nd time)
|--0---0-5---5-|-7---7------------|-------------------|
   1 2 & 3 4 &   1 2 & 3 & 4  &      1 & 2 & 3 & 4 &

VERSE 2:
               (x2)
|-------------------|-----------------|-------------|---------|
|*-----------------*|-----------------|-.-.---.-----|---------|
|*-7-7-7-7-7-7-7-7-*|-5-5-5-5-5-5-5-5-|-7-7---7-----|---------|
|-------------------|-----------------|-------------|---------|
   1 & 2 & 3 & 4 &    1 & 2 & 3 & 4 &   1 & 2 & 3 4   1 2 3 4

|-----------|
|-.---------|
|-7---7-----|
|-----------|
  1 2 & 3 4

MIDDLE BIT:

|------------------|------------------|
|*-----------------|-----------------*|
|*-7-7-7-7-7-7-7-7-|-----------------*| (x4)
|------------------|-5-5-5-5-5-5-5-5--|
   1 & 2 & 3 & 4 &   1 & 2 & 3 & 4 &
            
Submit corrections

comments powered by Disqus
↑ Back to top | Stevens Cat Bass for Matthew And Son. Lyrics for acoustic guitar and electric guitar. Tablatures and chords are parodies/interpretations of the original songs. You may use it for private study, scholarship, research or language learning purposes only