» » »

Steven Curtis Chapman, Lord Of The Dance Tabs (ver.1)

Artists:  A B C D E F G H I J K L M N O P Q R S T U V W X Y Z # 

Lord Of The Dance Tabs (ver.1)

Steven Curtis Chapman Tabs
Rating:
1/5 (1 vote)
Hard to play? Try these video lessons and learn fast.
                Hey guys, I heard this great son gbut couldn't find the tabs anywhere. If there's 
wrong, just let me know.
I like to use the DADGAD tuning to play this song.

VS

D |3-------5-------7-------9-------|
A |3-------5-------7-------9-------|
D |3-------5-------7-------9-------|
G |--------------------------------|
A |--------------------------------|
D |--------------------------------|

   On the bank of the Tenessee River, in a small Kentucky town

D |0-------3-------5-------7-------|
A |0-------3-------5-------7-------|
D |0-------3-------5-------7-------|
G |--------------------------------|
A |--------------------------------|
D |--------------------------------|

   Took my first breath one cold November morning and before my feet even touched the ground

D |9--------------0----------------|
A |9--------------0----------------|
D |9--------------0----------------|
G |--------------------------------|
A |--------------------------------|
D |--------------------------------|

   With the doctors and the nurses gathered round, I started to dance.


This is the same for all the verses, The chorus is below.


D |0-------3-------5-------7-------9-------|
A |0-------3-------5-------7-------9-------|
D |0-------3-------5-------7-------9-------|
G |----------------------------------------|
A |----------------------------------------|
D |----------------------------------------|

   I am the heart, I need the heartbeat, I am the Eyes I need the sight, I realize im 
the body and I need the life


D |0-------3-------5-------7-------9-------|
A |0-------3-------5-------7-------9-------|
D |0-------3-------5-------7-------9-------|
G |----------------------------------------|
A |----------------------------------------|
D |----------------------------------------|

  I move my feet I go through the motions, But i need purpose to chance, I am the dancer 
I need the lord of the dance.

If anyone wants, I can post the solo. Just let me know... Enjoy.
            

comments powered by Disqus
↑ Back to top | Steven Curtis Chapman Tabs for Lord Of The Dance. Lyrics for acoustic guitar and electric guitar. Tablatures and chords are parodies/interpretations of the original songs. You may use it for private study, scholarship, research or language learning purposes only