» » »

Jet Air Liner Tabs (ver.1)

Artists:  A B C D E F G H I J K L M N O P Q R S T U V W X Y Z # 

Jet Air Liner Tabs (ver.1)

Steve Miller Band
Rating:
4/5 (9 votes)
Tabs too difficult? Try these video lessons and learn fast.
                Stever Miller Band

Standard Tuning

mostly right, changed a few
things to make it more playable and fixed the bend (which is actually a pull).

Intro
E|--------------------|
B|--------------------|
G|--------------------|
D|---10-8-10-8--------|x4
A|-------------10p8p6-|
E|-8------------------|

*I usually do something like 10p8\6, but if you want to play it verbatum it's 10p8p6.

Guitar Chords for Intro
E|-----------------|
B|-----------------|
G|-5-------------3-|
D|-5-------------3-|x4
A|-3-------------1-|
E|-----------------|

*Slide up, listen to the song you'll see what I mean.

Verse
E|---------------------------------------------------------------------------------------|
B|---------------------------------------------------------------------------------------|
G|---------------------------------------------------------------------------------------|
D|----------------------1010----------------1010-12-10-1010--12-10-1010-12-10-1010-12-10-|
A|-1010-12-10--1010-12--8-8--12-10-1010-12--8-8--8--8--8-8---8--8--8-8--8--8--8-8--8--8--|
E|-8-8--8--8---8-8--8--------8--8--8-8--8------------------------------------------------|

E|--------------------------------------------------------------------------------------------|
B|--------------------------------------------------------------------------------------------|
G|--------------------------------------------------------------------------------------------|
D|--------------------------------------------------------10101010----------------------------|
A|-1010-12-10-1010-12-10-1010-12-10-1010-12-10-1010-12-10-8-8-8-8-8888--1010-12-10-1010-12-10-|x3
E|-8-8--8--8--8-8--8--8--8-8--8--8--8-8--8--8--8-8--8--8----------6666--8-8--8--8--8-8--8--8--|

*The double-digit numbers make this a little hard to get a rythm out of, you might try 
at the version 1 tab to get
 a better idea if you can't get it from the song.  Also, I find it helpful to barre the 
fret and finger from there.

Chorus
E|-1111-----------------------------|
B|-11113333-------------------------|
G|-22223333-------------------------|
D|-33333333-------------------------|x3
A|-33331111--1010-12-10-1010-12--10-|
E|-1111------8-8--8--8--8-8--8---8--|

E|-1111-----|
B|-11113333-|
G|-22223333-|
D|-33333333-|
A|-33331111-|
E|-1111-----|

*The F and the other chord I left in 1st position since it sounded awkward when I tried 
move them up to 5th.

Order:
Intro
Verse
Chorus
Intro
Verse
Chorus
Intro
Verse
Chorus (x4 starts to fade out)
Intro  (fades out completely)
            
Tabs too difficult? Try these video lessons and learn fast.


comments powered by Disqus
↑ Back to top | Tablatures and chords are parodies/interpretations of the original songs. You may use it for private study, scholarship, research or language learning purposes only