» » »

Stereophonics, Maybe Tomorrow Tabs (ver.1)

Artists:  A B C D E F G H I J K L M N O P Q R S T U V W X Y Z # 

Maybe Tomorrow Tabs (ver.1)

Stereophonics Tabs
Rating:
0/5 (0 votes)
Maybe Tomorrow lessons Tabs too difficult? Try these video lessons and learn fast
                Stereophonics – Maybe Tomorrow

Standard Tuning

Main Riff 

Verse And Chorus (Play each chord bitty 3 times)
 
-3--3--3-3---3-||----------3-3-3-3-||---------3--3-3-3-3--||---------------------- 
-3--3--3-3---3-||-----3h4--4-4-4-4—||---------3--3-3-3-3--||----1---1-1-1---1-1-1- 
-3--3--3-3---3-||-X-X-3h5--5-5-5-5-||---------3--3-3-3-3--||X-X-2---2-2-0---2-2-2- 
-1--1--1-1---1-||-X-X-3h5--5-5-5-5-||----3h5--5--5-5-5-5--||X-X-3---3-3-3---3-3-3- 
---------------||-X-X-3----3—3-3-3—||----3h5--5--5-5-5-5--||X-X-3---3-3-3---3-3-3- 
---------------||-X-X--------------||----3----3--3-3-3-3--||X-X------------------- 

Also put this little riff in the background all through the song…

---------------------
---------------------
---------------------
3h5-3h5-5---3h5-5----
---------------------
---------------------

Middle Section/Outro 

Just repeat this riff 4 times for the middle section, and for the outro slowing it down slightly towards the end. End the song on a final strum on xx1333 

-3--3--3-3---3-||-----3h5--5-5-5-5-||---------3--3-3-3-3--||---------------------- 
-3--3--3-3---3-||-----3h5--5-5-5-5-||---------3--3-3-3-3--||----1---1-1-1---1-1-1- 
-3--3--3-3---3-||-X-X-3h5--5-5-5-5-||---------3--3-3-3-3--||X-X-2---2-2-0---2-2-2- 
-1--1--1-1---1-||-X-X-3----3-3-3-3-||----3h5--5--5-5-5-5--||X-X-3---3-3-3---3-3-3- 
---------------||-X-X------------—-||----3h5--5--5-5-5-5--||X-X-3---3-3-3---3-3-3- 
---------------||-X-X--------------||----3----3--3-3-3-3--||X-X------------------- 


Solo:

E-1h3—1h3/5---3-3h5-5\3-3h5-5\3-5p3-3-1----1h3—1h3/5---3-3h5-5\3-3h5-5\3-5p3-3~~~~~
B----------------------------------------------------------------------------------
G----------------------------------------------------------------------------------
D----------------------------------------------------------------------------------
A----------------------------------------------------------------------------------
E----------------------------------------------------------------------------------

Then just start bending on 3 til the end of the solo

What a Crazy song! Cheers to the guy on stereo board who put the basics down for me! :D
            

comments powered by Disqus
↑ Back to top | Stereophonics Tabs for Maybe Tomorrow. Lyrics for acoustic guitar and electric guitar. Tablatures and chords are parodies/interpretations of the original songs. You may use it for private study, scholarship, research or language learning purposes only