» » »

Peg Bass tabs (ver.1)

Artists:  A B C D E F G H I J K L M N O P Q R S T U V W X Y Z # 

Peg Bass tabs (ver.1)

Steely Dan
Rating:
0/5 (0 votes)

Hard to play? Try these video lessons and learn fast.
                Bass Player:Chuck Rainey

This track is based on a blues type chord structure with a very
sixteenth note funk bass line. The notes in bracketts are not
always played. The chorus is tough but if you play it slowly at
first you will get it. Listen to the track carefully for some
of the timing cause some parts are off-beat!

Intro/M8

G:|-----------------|-----------------|--------------14-|
D:|-----------------|-----------------|---------3/12----|
A:|-----------------|-----------------|-----------------|
E:|-3---------------|-2---------------|-1---------------|

G:|-13--------------|-(12)------------|-(11)------------|
D:|-----------------|-----------------|-----------------|
A:|-----------------|-----------------|-----------------|
E:|-0---------------|--11-------------|--10-------------|

G:|-----------------|-----------------||
D:|-----------------|-----------------||
A:|-3---3---2-------|-3---3-----------||
E:|-----------------|---------3----1/3||

Verse x2

G:|-----------------|-----------------|-----------------|
D:|-----------------|----------5------|----------5------|
A:|3-3-----------5--|3-3(5)---------5-|3-3(5)---------5-|
E:|----3--3-33-7----|-------3-3--5/7--|-------3-3--5/7--|

G:|-----------------|----------5------|----------5------|
D:|----------5------|3-3(5)---------5-|3-3(5)---------5-|
A:|3-3(5)---------5-|-------3-3--5/7--|-------3-3--5/7--|
E:|-------3-3--5/7--|-----------------|-----------------|

G:|-----------------|-----------------|-----------------|
D:|----------5------|----------5------|5-5-----------7--|
A:|3-3(5)---------5-|3-3(5)---------5-|-----5-55-7/9----|
E:|-------3-3--5/7--|-------3-3--5/7--|-----------------|

G:|-----------------|-----------------|-----------------||
D:|3-35---------5-5h|7-5--------------|--5-5h75---------||
A:|-----3-33-5/7----|----5h7-7-5------|---------5h77-5-2||
E:|-----------------|------------3-3--|---------------3-||

Chorus(Slap&Pop)

G:|--5----5----4---4|--2---2----------|--5----5----4---4|
D:|-----------------|-----------------|-----------------|
A:|3---33---32---2--|0---------------2|3---33---32---2--|
E:|-----------------|--------0-00-2/3-|-----------------|

G:|--2---2----------|--6----6----5---5|-----------------|
D:|-----------------|-----------------|--5----5----4----|
A:|0------------2-3-|4---44---33---33-|-----------------|
E:|--------0-00-----|-----------------|3---33---22---235|
				       fingerstyle...
G:|--4----4---------|------------7/9\7||-----------------|
D:|------------2----|---7----7--------||-----------------|
A:|2---22-----------|----------5------||3-3-----------5--|
E:|---------00---023|55---55----------||-----3--33-5/7---|

G:|-----------------|-----------------|-----------------||
D:|-----------------|-----------------|-----------------||
A:|3-3(5)---5-------|-----2--2/7------|-----------------||
E:|-------3----0--3-|2----------------|---7-----8-------||

Then back to the intro...guitar solo over the verse...also
repeat the chorus until the end!

If you have any comments or corrections just e-mail me at:
            
Hard to play? Try these video lessons and learn fast. | Correct




comments powered by Disqus
↑ Back to top | Tablatures and chords are parodies/interpretations of the original songs. You may use it for private study, scholarship, research or language learning purposes only