>
 >
Godwhacker

Godwhacker Guitar Tabs

Steely Dan - Godwhacker chords, tabs, tablatures, lyrics

Guitar lessons | Add/correct | Request | Top 50 tabs Artists:  A B C D E F G H I J K L M N O P Q R S T U V W X Y Z 0-9

Godwhacker Guitar Tabs – Steely Dan

CD, Sheet music, Poster

Do you like Godwhacker? Share with your friends now
Tabs
                                                     Godwhacker
                                              As recorded by Steely Dan
                                          (from the Everything Must Go Album)


Words and Music by Donald Fagen & Walter Becker

H/O= hammer on
P/O= pull off
S-T= semi tone
b  = bend

MAIN RIFF-Repeats over and over untill Chorus. (BPM=120 aprox)

|----------------------------------|--------------------------------|
|----------------------------------|--------------------------------|
|-----------------0--1--0----------|--------------------------------|
|----1--3---3--3-----------3--1--3-|--------------------------------|
|-3--------------------------------|-------------1--1---------------|
|----------------------------------|-1--1--4--1---------4-----------|
|
|
|----------------------------------|--------------------------------|
|----------------------------------|--------------------------------|
|-----------------0--1--0----------|--------------------------------|
|----1--3--3--3------------3--1--3-|--------------------------------|
|-3--------------------------------|-------------1--1---------------|
|----------------------------------|-1--1--4--1--------4--1---------|

CHORUS RIFF-
|----------------------------------|------------------------------------|
|----------------------------------|------------------------------------|
|----------------5--6--5-----------|------------------------------------|
|----6--8--8--8-----------8--6--8--|----6--6----------------------------|
|-8--------------------------------|-8--------8--7<>8-------------------|
|----------------------------------|------------------------------------|
                 --H/O--                         bS-T
|----------------------------------|------------------------------------|
|----------------------------------|------------------------------------|
|----------------5--6--5-----------|------------------------------------|
|----6--8--8--8-----------8--6--8--|-8--6--6--8-------------------------|
|-8--------------------------------|-------------7<>8-------------------|
|----------------------------------|------------------------------------|
                 --H/O--                         bS-T
|----------------------------------|------------------------------------|
|----------------------------------|------------------------------------|
|----------------5--6--5-----------|------------------------------------|
|----6--8--8--8-----------8--6--8--|-8--6--6--8-------------------------|
|-8--------------------------------|-------------7<>8-------------------|
|----------------------------------|------------------------------------|
                 --H/O--                         bS-T
|------------------------------------|--------------------------------|
|------------------------------------|--------------------------------|
|------------------------------------|--------------------------------|
|----6--6--6--6--8--(9--8--6)----6---|-6------6-----------------------|
|-8----------------------------8---8-|----8------8-----------6--8-----|
|------------------------------------|-----------------6--8-----------|
                     -P/O-                             H/O   H/O

Here aer #3 "Riff Fills" to give an idea of what to put in between verse riff

|------------------------------------|------------------------------------------|
|-------2----------------------------|------------------------1-----------------|
|-1--3-----3--4--3--1----------------|---------------1--3--3-----3--1-----------|
|----------------------1-------------|---1--3--3--3--------------------3--1--3--|
|------------------------------------|-3----------------------------------------|
|------------------------------------|------------------------------------------|

|------------------------------------|
|------------------------------------|
|----1-----3-----1-------------------|
|-3-----3-----3-----3----------------|
|------------------------------------|
|------------------------------------|


Fm
In the beginning
We could hang with the dude
But it's been too much of nothing
Of that stank attitude
         Bbm7
Now they curse your name     Abmaj7  Dbmaj7
And there's a bounty on your face
          G7#9
It's your own fault daddy
Dbmaj7  C7#9            Fm7
God    whacker's on the case

Fm7
We track your almighty ass thru seven heaven worlds
Me, Slinky Redfoot
And our trusty Angel-girls
             Bbm7
And when the stars bleed out
                         Abmaj7  Dbmaj7
That be the fever of the chase
               G7#9
You better get gone poppie
Dbmaj7  C7#9            Fm7
God    whacker's on the case

Db      Bbm7
Be very very quiet
Db    Dm7b5 (half dim)
Clock everything you see
Db                  Fm7
Little things might matter later
       Abmaj7       D7#9   Dbmaj9  A/c  Fm7
At the start of the end of history

(Rest of song as above)

Climb up the glacier
Across bridges of light
We sniff you, Big Tiger
In the forest of the night
'Cause there's no escape
Better run run run
Godwhacker's on the case

Be very, very quiet
Clock everything you see
Little things might matter later
At the start of the end of history

Yes we are the Godwhackers
Who rip and chop and slice
For crimes beyond imagining
It's time to pay the price
You better step back son
Give the man some whacking space
You know this might get messy
GodWhacker's on the case


This is my first atempt at putting up a tab so if theres any problems e-mail me and let 
know and i'll help out any way i can, thanks.
I'll be adding the solo parts by Donald and Walter soon so check back for them ;)





Comments


Popular Steely Dan tabs & chords
Aja Bass Tabs
Home At Last Bass Tabs
Gaucho Chords
Hey Nineteen Chords
Deacon Blues Tabs
F.M Tabs
King Of The World Tabs
Third World Man Tabs
Pretzel Logic Ukulele
Reelin In The Years Ukulele


Song lyrics



↑ Back to top | Tablatures and chords are parodies/interpretations of the original songs. You may use it for private study, scholarship, research or language learning purposes only
© 2014 AZChords.com Contact us | Privacy policy | DMCA | Add/correct tabs | Request tabs | Top 50 tabs