» » »

Steely Dan, Doctor Wu Tabs (ver.1)

Artists:  A B C D E F G H I J K L M N O P Q R S T U V W X Y Z # 

Doctor Wu Tabs (ver.1)

Steely Dan Tabs
 Rating:
3.6/5 (5 votes)
Doctor Wu lessons Tabs too difficult? Try these video lessons and learn fast
1
                -------------------------------------------------------------------------------
                      Doctor Wu (Instrumental) – Steely Dan
-------------------------------------------------------------------------------
Tuning: e b g d a e

Basically this is Doctor Wu but fingerpicking style. They do not play it this way on the 
but it sounds great. It may have some faults.

e|---------0-0-----------0-3--0--------------0-----------------------------|
B|------0----3---------3---5--1--------3--1--3-------0--0------------------|
G|------0----2-------------4--0--------------2--------------2--------------|
D|--2----------------------------------------------------------------------|
A|--2-----------------------------3--3-------------------------------------|
E|--0---0----2--0--0-------0-----------------2--0--0-----------------------|

e|----------------0--0---------------------------------------------------|
B|--------0--3----3--3--3--0--0-------------7--7--7---5--5--5------------|
G|-0---2--0-------2-----4--0—0---2--0------7--7--7---5--5--5-------------|
D|-2--------------------5-----------------2------------------------------|
A|-----3-------------------3--3-----------3------------------------------|
E|-0------0-------2--0--0--0--0-----------5--7--7--7---5--5--5-----------|

e|--------------0--0-----------0--3--0--------------0-----------0-----------|
B|--3--3--3--0-----3--------3-----5--1--------3--1--3--------3----3--3------|
G|--4--4--4--0-----2--------------4--0--------------2----------------0------|
D|--------------------------------------------------------------------------|
A|------------------------------------------3--3----------------------------|
E|--3--3--3--0------2--0--0-------0------------------2--0--0---------0------|

e|------0----0------------------------------------------------------------|
B|--------3-----3--3-----------------------8--8--8---7--7--7--------------|
G|--2--------0-------2--2--2--2--0--0-----9--9--9---7--7--7---------------|
D|-------------------------2---------2------------------------------------|
A|-------------------------3----------------------------------------------|
E|-----------0-------------3---------0--0--8--8--8---7--7--7--------------|

e|-----0--0-----------0--3--0--------0------------------------3--2--2--0------|
B|--------1--------3-----5--1--3--0--3--7--7--7---5--5--5--0------------------|
G|--4-----2--------------4--0--------2--7--7--7---5--5--5---------------------|
D|--4-----3--0--0-------------------------------------------------------------|
A|----------------------------------------------------------------------------|
E|--3--------------------0------------2--7--7--7---5--5--5--------------------|


e|--0--------------------------|
B|--3--3--3--0--0--3--0--------|
G|--4-----0--------5-----0-----|
D|--5-----2--------4-----------|
A|-----------------------------|
E|--0--------------------------|

e|--5--6--10--10--10--12--10--5--6--10--10--10--12--14--10--10--14--10---------|
B|--------12--12--12--12--12---------12--12--12--12--12--12--12--12--11--------|
G|--------11--11--11--11--11---------11--11--11--11--11--11--11--11--10--------|
D|--5--5-----------------------5--5--------------------------------------------|
A|--5--5-----------------------5--5------------------------------------10------|
E|--------10--10--10--10--10---------10--10--10--10--10--10--10--10------------|

e|----------------------------------------8------8--10--10---------------|
B|--8--8--11--8--8--10--11--10--10--11--8--11--8--10--12--11--11---------|
G|--7--7--7---7--7--10--12--8----8--12--8--10--8--10--11--12--12---------|
D|--8--8--8---8--8--10--12--10--10--12-----12-------------12--12---------|
A|-----------------------------------------------------------------------|
E|------------------------------------------------------10---------------|

e|--10--10------10--10--12-------------------------8--7--8--7--------|
B|--12--12--11--12--12--12--12--10--12--8--10------------------------|
G|--11--11--12--11--11--11--12--9---12-------------------------------|
D|----------12---------------12--10--12------------------------------|
A|-------------------------------------------------------------------|
E|--10--10-------10--10--11------------------------------------------|


| /  slide up
| \  slide down
| h  hammer-on
| p  pull-off
| ~  vibrato
| +  harmonic
| x  Mute note
============================================================
            
Submit corrections

comments powered by Disqus
↑ Back to top | Steely Dan Tabs for Doctor Wu. Lyrics for acoustic guitar and electric guitar. 1 Tablatures and chords are parodies/interpretations of the original songs. You may use it for private study, scholarship, research or language learning purposes only