>
 >
Bodhisattva

Bodhisattva Guitar Tabs

Steely Dan - Bodhisattva chords, tabs, tablatures, lyrics

Guitar lessons | Add/correct | Request | Top 50 tabs Artists:  A B C D E F G H I J K L M N O P Q R S T U V W X Y Z 0-9

Bodhisattva Guitar Tabs – Steely Dan

CD, Sheet music, Poster

Do you like Bodhisattva? Share with your friends now
TabsTabs v2Tabs v3
-----------------------------------------------------------------------------
-----------------------------------------------------------------------------

Tuning: standard

Note: I will finish the solo out in the coming days! Just don't want to release
anything substandard.
Let me know if you like it.

e|-----------------------|
B|-----------------------|
G|-----------------------|
D|-5--3------5--3--------|
A|-5--3------5--3--------|
E|-3--1------3--1--------|

(* : 5 is bent to a little higher than 7, 7 just doesn't sound right)
e|---------------------------------------------------------------------------|
B|---------------------------------------------------------------------------|
G|-4-5-5^*--5^*-5-4-5-4-----------4-5-5^*--5^*-5-4-5-4-----------------------|
D|----------------------5-5-\3-------------------------5-5-\3----------------|
A|---------------------------------------------------------------------------|
E|---------------------------------------------------------------------------|

e|---------------------------------------------------------------------------|
B|---------------------------------------------------------------------------|
G|-4-5-5^*--5^*-5-4-5-4-2-2h4p2-----4-5-5^*--5^*-5-4-5-4-2-2h4p2-------------|
D|------------------------------3--------------------------------3-----------|
A|---------------------------------------------------------------------------|
E|---------------------------------------------------------------------------|

e|---------------------------------------------------------------------------|
B|---------------------------------------------------------------------------|
G|---------------9-10-9-10-12-14-12-10-----12-10-9---------------------------|
D|-9-10-12-10-12-----------------------12----------12------------------------|
A|--------------------------------------------------------------5------------|
E|--------------------------------------------------------3-5/7---7\5-3------|

e|---------------------------------------------------------------------------|
B|---------------------------------------------------------------------------|
G|---------------------------------------------------------------------------|
D|---------------------------------------------------------------------------|
A|-------5-7------------------5-7--------5-7--------5-7--------5-7-----------|
E|-3-5/7-----3----------3-5/7------3-5/7------3-5/7------3-5/7---------------|

e|---------------------------------------------------------------------------|
B|---------------------------------------------------------------------------|
G|---------------------------------------------------------------------------|
D|-------5-7--------5-7------------------------------------------------------|
A|-3-5/7------3-5/7------------5-7--------5-7--------------------------------|
E|-----------------------3-5/7------3-5/7------------------------------------|
(not sure about this)
e|---------------------------------------------------------------------------|
B|---------------------------------------------------------------------------|
G|---------------------------------------------------------------------------|
D|---5-8-------7-10-------3-7-------0-3--------------------------------------|
A|-6-----6---8------8---5-----5---1-----1------------------------------------|
E|---------------------------------------------------------------------------|

(right before the solo)
e|----------------------------------------------------------------------------|
B|----------------------------------------------------------------------------|
G|----------------------------------------------------------------------------|
D|-----------------------------------22-33-22---------------------------------|
A|-------5-7---------5-7-------22-55----------55-22---------------------------|
E|-3-5/7-------3-5/7--------33------------------------------------------------|
(solo)
e|-----------3---3---3----------------------------------------------5p3-----5-|
B|-3-6-6p5p3---3---3---6-3----------------------------------345-345-------5---|
G|---------------------------5-3h4----------------------345-------------------|
D|-------------------------5-------5---3h5----5-----345-----------------------|
A|-----------------------------------5----------345---------------------------|
E|----------------------------------------------------------------------------|

e|-3-5h6p5-3---5-4-3---------------------------------------------------------|
B|-----------5-------3-6p3-5-4-3---------------------------------------------|
G|-------------------------------5-4-3-4----------3--------------------------|
D|---------------------------------------5--3h4h5---5-----------------2-0----|
A|----------------------------------------------------6--5-4------2-4--------|
E|-----------------------------------------------------------5--5------------|

e|----------------------------------------2h3---3-6-5-4-3-4h5---5-6-7-3-5-----|
B|--------------------------------------4-----4---------------6-----------3-6-|
G|-------------2--5-4-3-2---2-5-4-3-2-3---------------------------------------|
D|---------2-3----------------------------------------------------------------|
A|---3-4-5--------------------------------------------------------------------|
E|-5--------------------------------------------------------------------------|
                                                                (unfinished)
e|-3-------------------------------------------------------------------------|
B|---3-6-5---3---------------------------------------------------------------|
G|---------5---6-5-4---------------------------------------------------------|
D|-------------------5-0-3---------------------------------------------------|
A|-------------------------5-4-3-5-4-3-1-2-------1-2--2-3-2-3-4-4-4-5--3h4h5-|
E|-----------------------------------------3-1-3-----------------------------|
                                              (approx 1:58)
e|----------------------------------------------------------------------------|
B|---------------------------------------------4h6-3-3h5-1--------------------|
G|---------------------------------------------------------2------------------|
D|----------------------------------------------------------3-----------------|
A|------------------------------------------------------------5-3-1-0-----1-3-|
E|--------------------------------------------------------------------1--3----|

e|----------------------------------------------------------------------------|
B|-------------8--------------------------------------------------------------|
G|-------6-8/9---/10-7-----------------5--------------------------7-9-7-9h10p-|
D|---5-8---------------10-8----------7---7h8h9-----------8-10-7-9-------------|
A|/6------------------------10-6-5-8-----------10-8-9-10----------------------|
E|----------------------------------------------------------------------------|

e|---------------------------------------------------------------------------|
B|---------------------------------------------------------------------------|
G|9-7-0----------------------------------------------------------------------|
D|---------------------------------------------------------------------------|
A|---------------------------------------------------------------------------|
E|---------------------------------------------------------------------------|

| ^  bend up
| /  slide up
| \  slide down
| h  hammer-on
| p  pull-off
| ~  vibrato
| +  harmonic
| x  Mute note
=============================================================================





Comments


Popular Steely Dan tabs & chords
Hey Nineteen Bass Tabs
Kid Charlemagne 1 Bass Tabs
Peg Bass Tabs
Rikki Don't Lose That Number Chords
Kid Charlemagne 3 Tabs
Kulee Baba Tabs
My Old School Tabs
The Boston Rag Intro Tabs
Pretzel Logic Ukulele
Razor Boy Ukulele


Song lyrics



↑ Back to top | Tablatures and chords are parodies/interpretations of the original songs. You may use it for private study, scholarship, research or language learning purposes only
© 2014 AZChords.com Contact us | Privacy policy | DMCA | Add/correct tabs | Request tabs | Top 50 tabs