>
 >
Bad Sneakers

Bad Sneakers Guitar Tabs

Steely Dan - Bad Sneakers chords, tabs, tablatures, lyrics

Guitar lessons | Add/correct | Request | Top 50 tabs Artists:  A B C D E F G H I J K L M N O P Q R S T U V W X Y Z 0-9

Bad Sneakers Guitar Tabs – Steely Dan

CD, Sheet music, Poster

Do you like Bad Sneakers? Share with your friends now
TabsTabs v2

BAD SNEAKERS         
Becker & Fagen

------------------------------------------5---------7>9----7---
-5>6------5>6---5>6---4-----5>6----------6----------------

5-5-h-7--5----5-------------------------------5----------------
--------------6--------5>6------4-----5>6--------6---4-------

                           
Dmaj 7              A          Dmaj 7              A       
Five      names    I  can  hardly  stand  to  hear,
Including your's and mine and one more chump who isn't there
I can see the Ladies talk-in how the times are get-tin hard
 and that fear-some explanation on Magnolia Boulevard


    Dmaj 7         C#m7           Bm7                  
  Yes      I'am      go-in      insane, 
 and    I'm    laugh-in    at    the    frozen    rain
And    I'am    so    alone      honey            
When     they   gon-na   take  me  home

(8th fret)      (7th fret)    (10th fret)  (8th fret)
Fmaj 7            Em7             Dm7         C
Bad  sneakers  and  a  pinacolada   my   friend,  
 stompon down   the   avenue   by   Radio   City with a
transister   and   a large   some   of   money   to   spend
B--------------------------5------------------------------------
G--5>6------4----5>6------6-6--4---------------------------


 Dmaj 7      A                Dmaj 7       A                          
             
   You fella,                you tear-in up the street,            
 you wear that white tuxedo, how you gon-na beat the heat
Do you take me for a fool,   do you think that I don't see
 that ditch out in the valley that they're dig-in just for me








Fmaj 7            Em7             Dm7         C
Bad  sneakers  and  a  pinacolada   my   friend,  
 stompon down   the   avenue   by   Radio   City with a
transister   and   a large   some   of   money   to   spend
B------------------------5---------------------------------------
G--5>6------4----5>6------6-6--4----------------------------


Solo ----- 


    Dmaj 7         C#m7           Bm7                  
  Yes      I'am      go-in      insane, 
 and    I'm    laugh-in   at   the   frozen    rain                   
                          
And    I'am    so    alone      honey            
When     they   gon-na   take  me  home


Fmaj 7            Em7             Dm7         C
Bad  sneakers  and  a  pinacolada   my   friend,  
 stompon down   the   avenue   by   Radio   City
 with a transister and a large some of  money to spend
B-------------------------5--------------------------------------
G--5>6------4----5>6------6-6--4---------------------------


---------------------
-------------------------------------------------------------2--------
---------------------
-----------------------------------2----------------2---4-------4---2-
--4---2-------4---2
-------2--2------2-2------2--4-------4--2---4-------------------------
--------4----------
3>4----------4--------4-----------------------------------------------
--------------------
------------------------





Comments


Popular Steely Dan tabs & chords
Pearl Of The Quarter Bass Tabs
Rikki Don't Lose That Number 1 Bass Tabs
Boston Rag Chords
Peg 1 Chords
Things I Miss The Most Chords
Any Major Dude 3 Tabs
Bad Sneakers 1 Tabs
Fire In The Hole Tabs
Josi Intro Tabs
Only A Fool Would Say That 2 Tabs


Song lyrics



↑ Back to top | Tablatures and chords are parodies/interpretations of the original songs. You may use it for private study, scholarship, research or language learning purposes only
© 2014 AZChords.com Contact us | Privacy policy | DMCA | Add/correct tabs | Request tabs | Top 50 tabs