» » »

Stealers Wheel, Stuck In The Middle With You Bass tabs (ver.1)

Artists:  A B C D E F G H I J K L M N O P Q R S T U V W X Y Z # 

Stuck In The Middle With You Bass tabs (ver.1)

Stealers Wheel Tabs
Rating:
4/5 (7 votes)
Stuck In The Middle With You lessons Tabs too difficult? Try these video lessons and learn fast
                STEALERS WHEEL - "Stuck In the Middle With You" - Bass Tab

Common Time(4/4)
Standard Tuning(EADG)


INTRO:
                               (x3)
|---------------|-------------------|-----------------|
|---------------|*-.-.-------------*|-----------------|
|-r-5-.-----2---|*-5-5---------2---*|-5---5-3-----2---|
|-----2-2-5---5-|--------2-2-5---5--|---------2-5---5-|
  1 & 2 3 & 4 &    1 2 & a 3 & 4 &    1 & a 2 3 & 4 &


VERSE:
               (x3)
|-------------------|-----------------|-.-.-------------|
|*-.-.-------------*|-----------------|-5-5---------2---|
|*-5-5---------2---*|-5---5-3-----2---|-------2-2-5---5-|
|--------2-2-5---5--|---------2-5---5-|-----------------|
   1 2 & a 3 & 4 &    1 & a 2 3 & 4 &   1 2 & a 3 & 4 &

|-.-.-----.-------|-----------------|-----------------|
|-5-5-----5-------|-.-.-------------|-----------------|
|-------5---0-2-0-|-5-5---------7---|-5---5-3-----2---|
|-----------------|-------2-2-5---5-|---------2-5---5-|
  1 2 & a 3 & 4 &   1 2 & a 3 & 4 &   1 & a 2 3 & 4 &

|-------------|-----------------|
|-------------|-----2-4-5-------|
|-----4-7-5-4-|-3-5---------2-3-|
|-5-5---------|-----------3-----|
  1 2 3 & 4 &   1 & 2 & 3 & 4 &


CHORUS:
               (x3)                (x3) 
|-------------------|-------------------|-.-.-------------|
|*-.-.-------------*|*-----------------*|-5-5---------2---|
|*-5-5---------2---*|*-5---5-3-----2---*|-------2-2-5---5-|
|--------2-2-5---5--|----------2-5---5--|-----------------|
   1 2 & a 3 & 4 &     1 & a 2 3 & 4 &   1 2 & a 3 & 4 &

|-.-.-----.-------|-----------------|-----------------|
|-5-5-----5-------|-.-.-------------|-----------------|
|-------5---0-2-0-|-5-5---------7---|-5---5-3-----2---|
|-----------------|-------2-2-5---5-|---------2-5---5-|
  1 2 & a 3 & 4 &   1 2 & a 3 & 4 &   1 & a 2 3 & 4 &

|-------------|-----------------|-----------------|
|-------------|-----2-4-5-------|-.-.-------------|
|-----4-7-5-4-|-3-5---------2-3-|-5-5---------2---|
|-5-5---------|-----------3-----|-------2-2-5---5-|
  1 2 3 & 4 &   1 & 2 & 3 & 4 &   1 2 & a 3 & 4 &

|-----------------|
|-----------------|
|-5---5-3-----2---|
|---------2-5---5-|
  1 & a 2 3 & 4 &


INTERLUDE:
|-----------------|-----------------|-----------------|
|-5-5-5-5-5-5-5-4-|-5-5-5-5-5-5-5-5-|-.-.-------------|
|-----------------|-----------------|-5-5---------2---|
|-----------------|-----------------|-------2-2-5---5-|
  1 & 2 & 3 & 4 &   1 & 2 & 3 & 4 &   1 2 & a 3 & 4 &

|-----------------|-----------------|-----------------|
|-----------------|-5-5-5-5-5-5-5-4-|-5-5-5-5-5-5-5-5-|
|-5---5-3-----2---|-----------------|-----------------|
|---------2-5---5-|-----------------|-----------------|
  1 & a 2 3 & 4 &   1 & 2 & 3 & 4 &   1 & 2 & 3 & 4 &

|-------------|---------|-------------|-------------|
|-.-----------|---------|-.-----------|-------------|
|-5-(5)---(5)-|---5---5-|-5-(5)---(5)-|---(5)---(5)-|
|-------------|---------|-------------|-------------|
  1  2  3  4    1 2 3 4   1  2  3  4    1  2  3  4


END:
                                  (x4)
|------------------|------------------|---------|
|*-.-.-------------|-----------------*|-.-------|
|*-5-5---------2---|-5---5-3-----2---*|-5-5-----|
|--------2-2-5---5-|---------2-5---5--|---------|
   1 2 & a 3 & 4 &   1 & a 2 3 & 4 &    1 2 3 4
            

comments powered by Disqus
↑ Back to top | Stealers Wheel Bass for Stuck In The Middle With You. Lyrics for acoustic guitar and electric guitar. Tablatures and chords are parodies/interpretations of the original songs. You may use it for private study, scholarship, research or language learning purposes only