>
 >
I Get By

I Get By Guitar Tabs

Stealers Wheel - I Get By chords, tabs, tablatures, lyrics

Guitar lessons | Add/correct | Request | Top 50 tabs Artists:  A B C D E F G H I J K L M N O P Q R S T U V W X Y Z 0-9

I Get By Guitar Tabs – Stealers Wheel

CD, Sheet music, Poster

Do you like I Get By? Share with your friends now
Tabs
I Get By by Stealers Wheel

INTRO
e---------------------------------------------------------10br-8----|
B--------------8~------8-10br-8-------------------------8-----------|
G------7-9br-7-----7-9------------------5-7br-5-7--7-9-----------7--|
D--7-9--------------------------10--5-7-----------------------------|
A-------------------------------------------------------------------|
E-------------------------------------------------------------------|

INTRO cont.
e-------------------------------------------------------------|
B--------------8~------8-10br-8-------------------------------|
G------7-9br-7-----7-9------------------5-7br-5--12-12-12\10--|
D--7-9--------------------------10--5-7----------12-12-12\10--|
A------------------------------------------------10-10-10\8---|
E-------------------------------------------------------------|

VERSE 0.22              x2
e------------------------|
B------------------------|
G------------------------|
D--4/5-5-x-x--4/5-5-x-x--|
A--4/5-5-x-x--4/5-5-x-x--|
E--2/3-3-x-x--2/3-3-x-x--|

0.30
e--------------------------------------------------|
B--------------------------------------------------|
G--------------------------------------------------|
D--12-10-9/10---5-333-3-5-333-3-55--5-333-3-5-333--|
A--12-10-9/10--------------------------------------|
E--10-8--7/8---------------------------------------|

0.56 "you sit there with your fancy cigar..."
e--------------------------------------------------------------------------|
B--------------------------------------------------------------------------|
G-------------------------------------10-10--------------------------------|
D--1010101010101010-5555555555555555--10-10-10---1212121212121212-55555555-|
A--1010101010101010-5555555555555555--8--8--10---1212121212121212-55555555-|
E--8-8-8-8-8-8-8-8--3333333333333333--------8----1010101010101010-33333333-|

e-----------------------|
B-----------------------|
G-----------------------|
D--10-10-8-10--5-5-5-3--|
A--10-10-8-10--5-5-5-3--|
E--8--8--6-8---3-3-3-1--|

1.54
e-------------|
B--3p0-3-3-0--|
G--3p0-3-3-0--|
D-------------|
A-------------|
E-------------|

2.28
e-------------------------------------------------------|
B-------------------------------------------------------|
G---------------------------------------3b-0-0-3p0---0--|
D----4-5-6-7---------------2-3-4-5-----------------3----|
A--5------------2-3-4-5--3------------------------------|
E-------------3---------------------3-------------------|

2.38
e-----------------------------------------------------------|
B--------------8~------8-10br-8-----------------------------|
G------7-9br-7-----7-9------------------5-7br-5-------------|
D--7-9--------------------------10--5-7----------5p3---3-5--|
A----------------------------------------------------5------|
E-----------------------------------------------------------|

e-----------------------------------------------------------------|
B--------------8~------8-10br-8------------------8-8-8-8p6---6-8--|
G------7-9br-7-----7-9------------------5-7br-5------------7------|
D--7-9--------------------------10--5-7---------------------------|
A-----------------------------------------------------------------|
E-----------------------------------------------------------------|

e------------------------------------------------------------------------|
B--------------8~------8-10br-8-------------------------------3p0-3-3-0--|
G------7-9br-7-----7-9------------------5-7br-5--12-12-12\10--3p0-3-3-0--|
D--7-9--------------------------10--5-7----------12-12-12\10-------------|
A------------------------------------------------10-10-10\8--------------|
E------------------------------------------------------------------------|

OUTRO
e-----------|
B-----------|
G--------5--|
D--8--3--5--|
A--8--3--3--|
E--6--1-----|

Any corrections please comment
Thanks





Comments


Popular Stealers Wheel tabs & chords
Stuck In The Middle With You Bass Tabs
Stuck In The Middle With You 1 Bass Tabs
Late Again Chords
Star Chords
Star 1 Chords
Stuck In The Middle With You Chords
Stuck In The Middle With You 1 Chords
Stuck In The Middle Tabs
Stuck In The Middle With You 1 Tabs
Star Ukulele


Song lyrics



↑ Back to top | Tablatures and chords are parodies/interpretations of the original songs. You may use it for private study, scholarship, research or language learning purposes only
© 2014 AZChords.com Contact us | Privacy policy | DMCA | Add/correct tabs | Request tabs | Top 50 tabs