» » »

Status Quo, Don't Waste My Time Tabs (ver.1)

Artists:  A B C D E F G H I J K L M N O P Q R S T U V W X Y Z # 

Don't Waste My Time Tabs (ver.1)

Status Quo Tabs
Rating:
0/5 (0 votes)
Don't Waste My Time lessons Tabs too difficult? Try these video lessons and learn fast
                status quo don't waste my time
H=b inportant because it was done on an american tab system

                             A9
Intro:
                 
E|--9-9-9-9-9-9-9-9-9-9---9-9-9-9-9-9-9-9-9-9----------|
H|--8-8-8-8-8-8-8-8-8-8---8-8-8-8-8-8-8-8-8-8----------|
G|--9-9-9-9-9-9-9-9-9-9---9-9-9-9-9-9-9-9-9-9----------|
D|-----------------------------------------------------|
A|-----------------------------------------------------|
E|-----------------------------------------------------|

E|---9-----8-----7---5---------------------------------|
H|------------------(5)--------------------------------|
G|-9---9\8---8\7---7\6---------------------------------|
D|---------------------------------9-9-9-9-9-9-9-9-9---|
A|---------------------------------7-7-7-7-7-7-7-7-7---|
E|----------------------5-3-2-1-0--0-0-0-0-0-0-0-0-0---|


             
                Don't Waste My Time
                (Rossi/Young)

                      D                                    A
                You spend my money, you drink my best red wine
                      D                                 E
                You think it's funny to see me all the time
                 D 
                Sittin' with my head hanging down
                  A                    C#m
                Treat me just like a clown
                              H                  E
                You spend my money, but come on honey
                                A
                Don't waste my time

                D                                             A
                When you get older, you'll see what you have done
                     D                                         E
                You hang on my shoulder and loved me just for fun
                 D                 
                Someday when I'm older, too
                           A                          C#m
                I'm gonna come and make a fool out of you
                              H                E
                You spend my money, you know honey
                                A    - E
                Don't waste my time

         
   Guitar solo round #1:
        D
E|-------------------------------------------|
H|------------10-12b14-12b14-----10-12-12b14-|
G|-9h10h11-11----------------/11-------------|
D|-------------------------------------------|
A|-------------------------------------------|
E|-------------------------------------------|

   A
E|----------------------------------------------------------|
H|-12b14-12b14-12b14r12p10----10----12b14-12b14-12b14-12b14-|
G|-------------------------11----11-------------------------|
D|----------------------------------------------------------|
A|----------------------------------------------------------|
E|----------------------------------------------------------|

        D
E|-------------------------------------------|
H|------------10-12b14-12b14-----10-12-12b14-|
G|-9h10h11-11----------------/11-------------|
D|-------------------------------------------|
A|-------------------------------------------|
E|-------------------------------------------|

         E
E|------------------------------------|
H|-12b14-12b14-12-10------------------|
G|-------------------11-9-11--11-10-9-|
D|------------------------------------|
A|------------------------------------|
E|------------------------------------|
 
         D 
E|-12b14-12b14-12b14-12b14r12-10----10-10----------|
H|-------------------------------12-------12-10----|
G|----------------------------------------------11-|
D|-------------------------------------------------|
A|-------------------------------------------------|
E|-------------------------------------------------|

         A                    C#m 
E|-12b14-12-12-12-12-10-12-10-9h10p9----9h10p9----9-|
H|-----------------------------------12--------12---|
G|--------------------------------------------------|
D|--------------------------------------------------|
A|--------------------------------------------------|
E|--------------------------------------------------|

             H                   E                    A  
E|-9h10p9----9-------------------------------------------|
H|--------12---12-10-12----10-12-12b14-12b14-12b14-12-10-|
G|----------------------11-------------------------------|
D|-------------------------------------------------------|
A|-------------------------------------------------------|
E|-------------------------------------------------------|

                       E
E|-------------------------------|
H|---8-10-8------------8h9-------|
G|-9--------9-8-7-5--------9-9-9-|
D|------------------7------------|
A|-------------------------------|
E|-------------------------------|


   Guitar solo round #2:
        D
E|-------------------------------------------|
H|------------10-12b14-12b14-----10-12-12b14-|
G|-9h10h11-11----------------/11-------------|
D|-------------------------------------------|
A|-------------------------------------------|
E|-------------------------------------------|

   A
E|----------------------------------------------------------|
H|-12b14-12b14-12b14r12p10----10----12b14-12b14-12b14-12b14-|
G|-------------------------11----11-------------------------|
D|----------------------------------------------------------|
A|----------------------------------------------------------|
E|----------------------------------------------------------|

        D
E|-----------15b17-15b17-15b17-15-12----12----------|
H|-----------------------------------15----15-14-13-|
G|-9h10h11------------------------------------------|
D|--------------------------------------------------|
A|--------------------------------------------------|
E|--------------------------------------------------|

                         E
E|-------------------12--20b22-------------------|
H|----------13-14-15-----------20p17----17-------|
G|-14-12-14--------------------------19----19p17-|
D|-----------------------------------------------|
A|-----------------------------------------------|
E|-----------------------------------------------|


                               D
E|-----------------------------------------------|
H|-----------------------------15b17-15b17-15b17-|
G|-----------------------------------------------|
D|-19p17-----------------------------------------|
A|-------19-17h18h19-19-19-19--------------------|
E|-----------------------------------------------|

                
E|-------------------------------------|
H|-15p13----13----------13-15-15b17-15-|
G|-------14----14-12-14----------------|
D|-------------------------------------|
A|-------------------------------------|
E|-------------------------------------|

   A                 C#m   
E|-----------------------------------------|
H|-14-14-15p14-------14-14--14-------------|
G|-------------14-16-----------16-14-16-14-|
D|-----------------------------------------|
A|-----------------------------------------|
E|-----------------------------------------|

   H                       E                       A          
E|----------------------------------------------------|
H|-15b17-15-13----------13-15b17-15-13-15-13----------|
G|-------------14-12-14----------------------14-12-14-|
D|----------------------------------------------------|
A|----------------------------------------------------|
E|----------------------------------------------------|

                       E
E|-10b12-10-8-10p8----8------------|
H|-----------------10---10-8-------|
G|---------------------------9-9-9-|
D|---------------------------------|
A|---------------------------------|
E|---------------------------------|


                      D                                    A
                You spend my money, you drink my best red wine
                      D                                 E
                You think it's funny to see me all the time
                 D       
                Sittin' with my head hanging down
                  A                    C#m
                Treat me just like a clown
                              H               E
                You spend my money, you know honey
                                A   - E
                Don't waste my time

   Guitar:
   A                        D
E|--------------------------5-5-5-5-5-5-5-5-5-5-5-5-|
h|--------------------------5-5-5-5-5-5-5-5-5-5-5-5-|
G|-7-7b9r7p5---5-5-5--------------------------------|
D|-----------7-------7-5-7--------------------------|
A|--------------------------------------------------|
E|--------------------------------------------------|


                           E
E|-5-5-5-5-5-5-5-5-5-5-5-5-5-------5----------|
h|-5-5-5-5-5-5-5-5-5-5-5-5---5-5---5----------|
G|-------------------------------5----7-5h6---|
D|------------------------------------------7-|
A|--------------------------------------------|
E|--------------------------------------------|

   H               E
E|-7-7-7-----------------------------|
h|-7-7-7-----------------------------|
G|-------9-7h8----------9-11b13-11-9-|  From here only small
D|-------------9-9-9h11--------------|  details seperate the guitar
A|-----------------------------------|  solos from round #1 & #2.
E|-----------------------------------|

                 chords to the guitar solo:     
                 D-D-A-A-D-D-E-E-D-D-A-C#m-H-E-A-E
                 D-D-A-A-D-D-E-E- (<- only  rythme guitar!!)
                 D-D-A-A-D-D-E-E-D-D-A-C#m-H-E-A-E
                 Bb9->A9.......
            

comments powered by Disqus
↑ Back to top | Status Quo Tabs for Don't Waste My Time. Lyrics for acoustic guitar and electric guitar. Tablatures and chords are parodies/interpretations of the original songs. You may use it for private study, scholarship, research or language learning purposes only