» » »

Starting Line, Three's A Charm Tabs (ver.2)

Artists:  A B C D E F G H I J K L M N O P Q R S T U V W X Y Z # 

Three's A Charm Tabs (ver.2)

Starting Line Tabs
 Rating:
4/5 (4 votes)
Three's A Charm lessons Tabs too difficult? Try these video lessons and learn fast
1
                Tabs Posted by:Casey Hershey(rockstardude)




P=PULL OFF
H=HAMMER ON
/=SLIDE
*=PLAY CHORD ONCE THEN MUTE IT

INTRO: 

e-----------------------------------------------------------
B----7-7P5-8-8-8/7-5-7------------7--5H7P5------------------
G---7-----7-7----------(PLAY 5X)-7--------7----(PLAY 1X)----
D-----------------------------------------------------------
A-----------------------------------------------------------
E-----------------------------------------------------------

INTRO AND CHORUS RIFF:

THIS IS THE RHYTHM-YOU STRUM EACH CHORD ABOUT 12X(FIGURE OUT THE STRUMMING PATTERN ON YOUR 
OWN) EXCEPT FOR THE LAST 4.

e-----------------------------------------------------------
B-----------------------------------------------------------
G-----------------------------------------------------------
D-7---------------------------------------------------------
A-5---7--5---2*4*5*--7--------------------------------------
E-----5--3---0*2*3*--5-(PLAY ABOUT 6X)----------------------

THIS IS THE 2ND GUITAR PART-I DON'T HAVE THE TIMING ON HERE.

e-----------------------------------------------------------
B-----------------------------------------------------------
G-7-9--11-12--11-14--12---11--9--11-------------------------
D-x-x--x--xx--x--xx--xx---x---x--x--------------------------
A-5-7--9--10--9--12--10---9---7--9--------------------------
E-----------------------------------------------------------

e-----------------------------------------------------------
B-----------------------------------------------------------
G--7-9--11--12--11-9--11-7-6--7/9/-7/6-7--------------------
D--X-x--x---xx--x--x--x--x-x--x-x--x-x-x--------------------
A--5-7--9---10--9--7--9--5-4--5/7/-5/4-5--------------------
E-----------------------------------------------------------

I was just listening to this song on the internet and heard this part and figured it out.
in the intro after they play the riff 1 time another guitar comes in.:

e-----------------------------------------------------------
B-----------------------------------------------------------
G-7-6-6-7-6---6H7----(PLAY AFTER THE FIRST TIME THEY PLAY-- 
D----7------7----------THE RIFF UNTIL THE VERSE STARTS)-----
A-----------------------------------------------------------
E-----------------------------------------------------------

VERSE 1: PLAY THE INTRO PALM MUTED, THERE ARE A COUPLE CHANGES BUT IT'S BASICALLY THE SAME 
THING.

BRIDGE: I CAN'T QUITE FIGURE OUT WHAT THEY'RE PlaYING.

CHORUS: PLAY THE INTRO EXCEPT LEAVE OUT THAT LAST PART.

VERSE 2: SAME AS VERSE 1

WHERE HE SAYS: "SO TAKE IT SLOW": PALM MUTE AN A5

2ND GUITAR COMES IN AFTER HE SAYS "EVERY NOW AND AGAIN":

e-----------------------------------------------------------
B-----------------------------------------------------------
G----4-7-4--------------------------------------------------
D-7-7-7-7-7-------------------------------------------------
A-----------------------------------------------------------
E-----------------------------------------------------------
            
Submit corrections

comments powered by Disqus
↑ Back to top | Starting Line Tabs for Three's A Charm. Lyrics for acoustic guitar and electric guitar. 1 Tablatures and chords are parodies/interpretations of the original songs. You may use it for private study, scholarship, research or language learning purposes only