» » »

Playing Favorites Tabs (ver.5)

Artists:  A B C D E F G H I J K L M N O P Q R S T U V W X Y Z # 

Playing Favorites Tabs (ver.5)

Starting Line
Rating:
0/5 (0 votes)

Tabs too difficult? Try these video lessons and learn fast.
                Im nearly positive this is 100% correct

(INTRO)

(guitar 1)
e|0----0----0----0--0|(x2)
B|0----0----3----0--3|
G|6----2----2----2--2|
D|7----2----0----2--0|
A|7----0----0----0--0|
E|4----2----0----0--0|


 (guitar 2)
e|--------------------------------------------------------------| (x2)
B|--------------------------------------------------------------|
G|----9------9----------9---------9------------------2h4p2------|
D|-11--9h11---11----7-----7--7h9------7--4--6-------2h4-------0-|
A|0---------------12------------------0--0--0-------------------|
E|--------------------------------------------------------------|

(VERSE 1)

(both guitars)
e|0----0----0----0--0|(x2)
B|0----0----3----0--3|
G|6----2----2----2--2|
D|7----2----0----2--0|
A|7----0----0----0--0|
E|4----2----0----0--0|


(PRE-CHORUS)

(both guitars)
e|----------------------------------------|(X4)
B|000--000--000--000----333--333--333--333|
G|222--222--222--222----222--222--222--222|
D|222--222--222--222----000--000--000--000|
A|----------------------------------------|
E|----------------------------------------|


(CHORUS)

(both guitars)

e|-0----0----0----0----0--0-|
B|-0----0----0----3----0--3-|
G|-6----9----2----2----2--2-|
D|-7----9----2----0----2--0-|
A|-7----0----0----0----0--0-|
E|-5----0----2----0----0--0-|


(VERSE 2)

(guitar 1)
e|0----0----0----0--0|(x2)
B|0----0----3----0--3|
G|6----2----2----2--2|
D|7----2----0----2--0|
A|7----0----0----0--0|
E|4----2----0----0--0|


 (guitar 2)
e|--------------------------------------------------------------| (x2)
B|--------------------------------------------------------------|
G|----9------9----------9---------9------------------2h4p2------|
D|-11--9h11---11----7-----7--7h9------7--4--6-------2h4-------0-|
A|0---------------12------------------0--0--0-------------------|
E|--------------------------------------------------------------|

(VERSE 1)

(PRE-CHORUS)

(CHORUS)

(BRIDGE)
(both guitars)
e|--0----0----0----0--|
B|--0----0----0----3--|
G|--2----2----2----2--|
D|--2----2----2----0--|
A|--0----0----0----0--|
E|--2----4----0----0--|


(CHORUS)

(OUTRO)
(both guitars)
e|--0----0----0------0----0----0--|
B|--0----0----3------0----0----3--|
G|--2----2----2------2----0----2--|
D|--2----2----0------2----2----0--|
A|--0----0----0------0----0----0--|
E|--2----4----0------2----4----0--|

END ON

e|--0--|
B|--2--|
G|--2--|
D|--2--|
A|--0--|
E|--0--|
            
Tabs too difficult? Try these video lessons and learn fast.




comments powered by Disqus
↑ Back to top | Tablatures and chords are parodies/interpretations of the original songs. You may use it for private study, scholarship, research or language learning purposes only