» » »

Starting Line, Playing Favorites Tabs

Artists:  A B C D E F G H I J K L M N O P Q R S T U V W X Y Z # 

Playing Favorites Tabs

(ver. 1)
Starting Line Tabs
 Rating:
4/5 (4 votes)
    Playing Favorites lessons Tabs too difficult? Try these video lessons and learn fast

WWW.AZCHORDS.COM | Starting Line Tabs - Playing Favorites Tabs (ver. 1)


                Intro guitar 1 rythm
|------------------|
|------------------|
|--9--2--2--9--2~--|
|-11--4--0--7--2~--|
|--o--0--0--9--0~--|
|--0--0--0---------|
                

Intro guitar 2 lead
v=switch chord           v               v          v           v         
|------------------------------------------------------------------|
|---------------------------------------------------------0--------|
|------9-------9-----------9-------9------------------------2---2~-|
|---11---9h11----11------7---7-7h9(9)-7--4--6--2----0h2h4-------2~-|
|-0-----------------0--------------------0--0--0--0-------------0~-|
|-------------------------------------------------5----------------|
Play the part in parenthesis on the second time around for the Punk 
Goes acoustic Version

Verse
|-----------------------------------|
|-----------------------------------|
|--9------2-------2-------9-------9-|
|-11------4-------0-------7-------7-|
|--0------0-------0-------9-------0-|
|--0------0-------0---------------0-|
1. guess..make..  sing..  hope..believe.. 
2. heres..so..    still.. just.. this..

3. this.. know..  the..   lonely..miss..
4. say..  what..  coming..just..  this..

Prechorus
Both Guitars
|-----------|
|-------2---|
|----2--2---|
|-2--2--0---|
|-0--0--0---|        
|-0--0--0---|        
                    
Chorus               
|----------------------------------------|
|----------------------------------------|
|--9------9-------2------9------9------9-|
|-11------9-------4------9------9------7-|
|--x------x-------0------x------0------0-|
|--5------5-------0------9------0------0-|
   ^ that chords sorta hard so play E and A open if you want
 1.wait.. west..  dont.. favor..thing..about..
 2.I..    stayed..wait.. down.. days.. calif..

Bridge guitar 1 rythm
|---------|
|---------|
|-9-9-9-9-|
|-7-7-7-7-|
|-9-0-x-7-|
|-----9---|
Bridge guitar 2 lead
This is what guitar 2 plays in the bridge
play the first part 3 times then the second part
then back to the chorus
|---------------------|-------------------|
|---------------------|-------------------|
|-14-13-11-9/11\9-8---|--14-13-14-9/11----|
|--x--x--x-x/x-\x-9-9-|---x--x--x-x/-x----|
|-12-11--9-7/9-\7-7-6-|--12-11-12-7/-9----|
|---------------------|-------------------|
 on this ^ chord on one part he sldes from 9
                                           x
                                           7

End
|---------|
|---------|  
|-9-9-9---| 9
|-9-9-7---|11  end on that
|-x-0-0---| 0 
|-9-0-0---| 0

Structure

intro x2
verse x2
prechorus x4
chorus x2
intro x2
verse x2
prechorus x4
chorus x2
Bridge (figure the number)
Chorus x2
End
            
Submit corrections

↑ Back to top | Starting Line Tabs for Playing Favorites. Lyrics for acoustic guitar and electric guitar. Tablatures and chords are parodies/interpretations of the original songs. You may use it for private study, scholarship, research or language learning purposes only