» » »

Nothing Short Of A Miracle Tabs (ver.1)

Artists:  A B C D E F G H I J K L M N O P Q R S T U V W X Y Z # 

Nothing Short Of A Miracle Tabs (ver.1)

Starting Line
Rating:
0/5 (0 votes)

Hard to play? Try these video lessons and learn fast.
                NOTHING SHORT OF A MIRICALE - The Starting Line 


Guitar 1- 
e|----------------------------------------------------------------------------| 
B|----------------------------------------------------------------------------| 
G|----------9--------------9-------9-------------9-----------9---------9------| 
D|-----------------9-----------9------9----------------9--------9-------------| 
A|-----7-7----7-7-----7-7----7---7--7---7-------------------------------------| 
E|------------------------------------------7-7----7-7---7-7---7----7---------| 
P.M. intro . . . . . . . . . . . . . . . . . . . . . . . . . . . . 

e|----------------------------------------------------------------------------| 
B|----------------------------------------------------------------------------| 
G|-------9-------------9-------9----------------------------------------------| 
D|-------------9-----------9-----------7-7-7-7-7--9-9-9-9---------------------| 
A|-------------------------------------7-7-7-7-7--9-9-9-9---------------------| 
E|---9-9---9-9----9-9----9---9---9-----5-5-5-5-5--7-7-7-7---------------------| 
Release P.M. 

Guitar 2- 
e|----------------------------------------------------------------------------| 
B|----------------------------------------------------------------------------| 
G|------9-*---4-*-------------------------------------------------------------| 
D|------9-*---4-*--4-*---/-7--------------------------------------------------| 
A|------7-*---2-*--4-*--/--7--------------------------------------------------| 
E|-----------------2-*-/---5--------------------------------------------------| 
*- let ring / slide 

The main chord progression is guitar 2 parts, but don’t let ring. 

Don’t know the rest yet, but I’ll try and figure it out and have it up soon. 
            
Hard to play? Try these video lessons and learn fast. | Correct




comments powered by Disqus
↑ Back to top | Tablatures and chords are parodies/interpretations of the original songs. You may use it for private study, scholarship, research or language learning purposes only