» » »

Starting Line, Nothing's Gonna Stop Us Now Tabs (ver.1)

Artists:  A B C D E F G H I J K L M N O P Q R S T U V W X Y Z # 

Nothing's Gonna Stop Us Now Tabs (ver.1)

Starting Line Tabs
 Rating:
4/5 (4 votes)
Nothing's Gonna Stop Us Now lessons Tabs too difficult? Try these video lessons and learn fast
                NOTHING'S GONNA STOP US NOW - The Starting Line 


Intro 
Guitar 1 
e|---------------------------------------------------------------------------| 
B|---------------------------------------------------------------------------| 
G|----4----------------------------------------------------------------------| 
D|-2--4--6--7----------------------------------------------------------------| 
A|-2--2--6--7----------------------------------------------------------------| 
E|-0-----4--5----------------------------------------------------------------| 

Guitar 2 pick scr*pe 
e|---------------------|-----------------------------------------------------| 
B|---------------------|-----------------------------------------------------| 
G|---------------------|-----------------------------------------------------| 
D|----9-------------9--|--------6-9-6---6----------6--11-6---6---------------| 
A|-7----------7-7h9----|-7-7-7h9------9---7-----9----------9---7-------------| 
E|---------------------|-----------------------------------------------------| 

Verse 1: 
E B 
Lookin' in your eyes I see a paradise 
G# A 
This world that I found is too good to be true 
E B 
Standing here beside you, want so much to give you 
G# B 
This love in my heart and I feel it for you 

Verse 2: 
E B 
Let 'em say we're crazy, I'll give a path 
G# A 
Put your hands in my hand baby don't ever look back 
E B 
Let the world around us, just fall apart 
G# A 
Baby we can make it if we're heart to heart 

Chorus: 
E 
And we can build this thing together 
B 
Standing strong forever 
G# A 
Nothing's gonna stop us now 
E 
And if this world runs out of lovers 
B 
We'll still have each other 
G# 
Nothing's gonna stop us 
A 
Nothing's gonna stop us 
E 
Now woah woah oh 

Verse 3: Same Chords (E B G# A) 

I'm so glad I found you. I'm not gonna lose you 

Whatever it takes I will stay here with you 

Take it to the good times See it through the bad times 

Whatever it takes is what I'm gonna do 

Verse 4: 

Let 'em say we're crazy What do they know? 

Put your hands in my hand baby, don't ever let go 

Let the world around us. Just fall apart 

Baby we can make it if we're heart to heart 

(Chorus) 

Bridge: 
E B G# 
Woooooo, all that I need is you 
A E B G# 
All that I ever need in the whole of the world to do 
A A A A A# 
Is hold you forever, ever and ever... Hey! 

Solo: 

e|----------8-10------------------------------------------------------15-13--| 
B|-10-8----------8----------11----10-------------------13-13h15-13-15--------| 
G|------10---------10-------------------12--10-------------------------------| 
D|---------------------10s12----12---12--------b12-10------------------------| 
A|---------------------------------------------------------------------------| 
E|---------------------------------------------------------------------------| 

e|---------------------------------------------------------------------------| 
B|---------------------------------------------------------------------------| 
G|---------------------55----------------------------------------------------| 
D|--------333--55--77-----7-555----------------------------------------------| 
A|--333-5--------------------------------------------------------------------| 
E|---------------------------------------------------------------------------| 


Chorus again 
            
Submit corrections

comments powered by Disqus
↑ Back to top | Starting Line Tabs for Nothing's Gonna Stop Us Now. Lyrics for acoustic guitar and electric guitar. Tablatures and chords are parodies/interpretations of the original songs. You may use it for private study, scholarship, research or language learning purposes only