» » »

Starting Line, Making Love To The Camera Tabs (ver.1)

Artists:  A B C D E F G H I J K L M N O P Q R S T U V W X Y Z # 

Making Love To The Camera Tabs (ver.1)

Starting Line Tabs
 Rating:
4/5 (4 votes)
Making Love To The Camera lessons Tabs too difficult? Try these video lessons and learn fast
                Standard Tuning

intro (acoustic) guitar 1
e-0---0-0-0-0---0-0-0-0---0-0-0---0-0-0-0---0-0-0-0---0-0-0---0-0-0-0--\
B-0---0-0-0-0---0-0-0-0---0-0-0---0-0-0-0---0-0-0-0---0-0-0---0-0-0-0--\
G-9---9-9-9-9---9-9-9-8---8-8-9---9-9-9-9---9-9-9-8---8-8-6---6-6-6-6--\
D-9---9-9-9-9---9-9-9-8---8-8-9---9-9-9-9---9-9-9-8---8-8-6---6-6-6-6--\
A-7---7-7-7-7---7-7-7-6---6-6-7---7-7-7-7---7-7-7-6---6-6-4---4-4-4-4--\
E-0---0-0-0-0---0-0-0-0---0-0-0---0-0-0-0---0-0-0-0---0-0-0---0-0-0-0--\

e-0-0-0-0---0-0\                              -0-~
B-0-0-0-0---0-0 \                             -0-~
G-6-6-6-4---4-4  \                            -6-~
D-6-6-6-4---4-4   } 2x, second time end with> -6-~
A-4-4-4-2---2-2  /      and let ring          -4-~
E-0-0-0-0---0-0 /                             -0-~

guitar 2 acoustic, on second time play:

e-----4~------------------|-----9~----------------|-----0-------------------|
B---5---------------------|---5-------------------|----4-4------------------|
G-4-----------------------|-4---------------------|-3h4---4-----------------|
D-------------------------|-----------------------|-------------------------|
A-------------------------|-----------------------|-------------------------|
E-------------------------|-----------------------|-------------------------|

Now Electric...

Then (guitar 1):

e-----------------------\       --------------------------\
B-9--9-9-9---9--9-9-9-7--\      --------------------------\
G-x--x-x-x---x--x-x-x-x---\     -6--6-6-6---6--6-6-6-4----\
D-6--6-6-6---6--6-6-6-4----}2x  -x--x-x-x---x--x-x-x-x----\2x
A-------------------------/     -4--4-4-4---4--4-4-4-2----\
E------------------------/      --------------------------\

guitar 2:

e-----0-------------------|-----0----------------|
B----4-4------------------|----4-4---------------|
G-3h4---4-----------------|-3h4---4--------------|
D-------------------------|----------------------|
A-------------------------|----------------------|
E-------------------------|----------------------|


| /  slide up
| \  slide down
| h  hammer-on
| p  pull-off
| ~  vibrato/let ring
| +  harmonic
| x  Mute note
            
Submit corrections

comments powered by Disqus
↑ Back to top | Starting Line Tabs for Making Love To The Camera. Lyrics for acoustic guitar and electric guitar. Tablatures and chords are parodies/interpretations of the original songs. You may use it for private study, scholarship, research or language learning purposes only