» » »

Starting Line, Inspired By The Tabs (ver.3)

Artists:  A B C D E F G H I J K L M N O P Q R S T U V W X Y Z # 

Inspired By The Tabs (ver.3)

Starting Line Tabs
Rating:
0/5 (0 votes)
Hard to play? Try these video lessons and learn fast.
                -----------------------------------------------------------------
Inspired By the $ - The Starting Line
-----------------------------------------------------------------  

Seems more accurate than others....but i'll let you decide


Intro

  C#m            
e|---------------------------------------------------------------|
B|---------------------------------------------------------------|
G|---------------------------------------------------------------|
D|----2-------------------2--------------------------------------|
A|-44---4-44-4444-0-2--44---4-44-4444-0-2------------------------|
E|---------------------------------------------------------------|


  A                    B
e|---------------------------------------------------------------|
B|---------------------------------------------------------------|
G|---------------------------------------------------------------|
D|----2-----------4-2-----4--------------------------------------|
A|-00---0-00-0000------22---2-22-2222-2-3------------------------|
E|---------------------------------------------------------------|

  C#m      A   B  C
e|---------------------------------------------------------------|
B|---------------------------------------------------------------|
G|-4---4---2---4--5----------------------------------------------|
D|-2---2---2---4--5----------------------------------------------|X2
A|-4---4---0---2--3----------------------------------------------|
E|---------------------------------------------------------------|
  (the reason i put C#m twice is cuz it's played for two bars)  


Verse 1

  C#m            
e|---------------------------------------------------------------|
B|---------------------------------------------------------------|
G|---------------------------------------------------------------|
D|----2-------------------2--------------------------------------|
A|-44---4-44-4444-0-2--44---4-44-4444-0-2------------------------|
E|---------------------------------------------------------------|


  A                    B
e|---------------------------------------------------------------|
B|---------------------------------------------------------------|
G|---------------------------------------------------------------|
D|----2-----------4-2-----4--------------------------------------|
A|-00---0-00-0000------22---2-22-2222-2-3------------------------|
E|---------------------------------------------------------------|

  C#m            
e|---------------------------------------------------------------|
B|---------------------------------------------------------------|
G|---------------------------------------------------------------|
D|----2-------------------2--------------------------------------|
A|-44---4-44-4444-0-2--44---4-44-4444-0-2------------------------|
E|---------------------------------------------------------------|


  A                    B
e|---------------------------------------------------------------|
B|---------------------------------------------------------------|
G|---------------------------------------------------------------|
D|----2-----------4-2-----4--------------------------------------|
A|-00---0-00-0000------22---2-22-2222-2-3------------------------|
E|---------------------------------------------------------------|

  C#m            
e|---------------------------------------------------------------|
B|---------------------------------------------------------------|
G|---------------------------------------------------------------|
D|----2-------------------2--------------------------------------|
A|-44---4-44-4444-0-2--44---4-44-4444-0-2------------------------|
E|---------------------------------------------------------------|


  A                    B                    C
e|---------------------------------------------------------------|
B|---------------------------------------------------------------|
G|------------------------------------------5-5--5-5-------------|
D|----2-----------4-2-----4-----------------5-5--5-5-------------|
A|-00---0-00-0000------22---2-22-2222-2-3---3-3--3-3-------------|
E|---------------------------------------------------------------|


Chorus

  C#m      A   B   C
e|---------------------------------------------------------------|
B|---------------------------------------------------------------|
G|-4---4---2---4---5---------------------------------------------|
D|-2---2---2---4---5---------------------------------------------|X2
A|-4---4---0---2---3---------------------------------------------|
E|---------------------------------------------------------------|


Verse 2
  

  C#m            
e|---------------------------------------------------------------|
B|---------------------------------------------------------------|
G|---------------------------------------------------------------|
D|----2-------------------2--------------------------------------|
A|-44---4-44-4444-0-2--44---4-44-4444-0-2------------------------|
E|---------------------------------------------------------------|


  A                    B
e|---------------------------------------------------------------|
B|---------------------------------------------------------------|
G|---------------------------------------------------------------|
D|----2-----------4-2-----4--------------------------------------|
A|-00---0-00-0000------22---2-22-2222-2-3------------------------|
E|---------------------------------------------------------------|


  C#m            
e|---------------------------------------------------------------|
B|---------------------------------------------------------------|
G|---------------------------------------------------------------|
D|----2-------------------2--------------------------------------|
A|-44---4-44-4444-0-2--44---4-44-4444-0-2------------------------|
E|---------------------------------------------------------------|


  A                    B                    C Cm
e|---------------------------------------------------------------|
B|--------------------------------------------4------------------|
G|------------------------------------------5-5------------------|
D|----2-----------4-2-----4-----------------5-5------------------|
A|-00---0-00-0000------22---2-22-2222-2-3---3-3------------------|
E|---------------------------------------------------------------|


Chorus

   C#m     A   B   C
e|---------------------------------------------------------------|
B|---------------------------------------------------------------|
G|-4---4---2---4---5---------------------------------------------|
D|-2---2---2---4---5---------------------------------------------|X2
A|-4---4---0---2---3---------------------------------------------|
E|---------------------------------------------------------------|


Break

  C#m                           A (i think)   F#              G#
e|---------------------------------------------------------------|
B|---------------------------------------------------------------|
G|---------------------------------------------------------------|
D|----2---------2-------2-------2--2-0--------4-4-4-4-4-4-44--6--|X2
A|-4-----4-0-4----4-0-4---4-0-4--------22-00--4-4-4-4-4-4-44--6--|
E|--------------------------------------------2-2-2-2-2-2-22--4--|


  C#m                          F#  G# A  Cm
e|---------------------------------------------------------------|
B|---------------------------------------------------------------|
G|---------------------------------------8-----------------------|
D|-2-22-2-22-2-22-2-22--2-------4--6--7--10----------------------|
A|-4-44-4-44-4-44-4-44----22-0--4--6--7--10----------------------|
E|------------------------------2--4--5--8-----------------------|


Final Chorus/outro

   C#m     A   B          C#m     A   B   Cm     
e|---------------|-----------------------------------------------|
B|---------------|------------------------4----------------------|
G|-4---4---2---4-|--------4---4---2---4---5----------------------|
D|-2---2---2---4-|-(X3)---2---2---2---4---5----------------------|
A|-4---4---0---2-|--------4---4---0---2---3----------------------|
E|---------------|-----------------------------------------------|
            

comments powered by Disqus
↑ Back to top | Starting Line Tabs for Inspired By The. Lyrics for acoustic guitar and electric guitar. Tablatures and chords are parodies/interpretations of the original songs. You may use it for private study, scholarship, research or language learning purposes only