» » »

Hello Houston Bass tabs (ver.1)

Artists:  A B C D E F G H I J K L M N O P Q R S T U V W X Y Z # 

Hello Houston Bass tabs (ver.1)

Starting Line
Rating:
0/5 (0 votes)

Hard to play? Try these video lessons and learn fast.
                HELLO HOUSTON

INTRO
G--------*-------------------------------------
D--------*-------------------------------------
A-2-2-2-2*-2222--------------444444-6-77777777-
E--------*-----0000-2222-4444------------------ X4

VERSE
G-------------------------------------
D-------------------------------------
A-2222--------------444444-6-77777777-
E-----0000-2222-4444------------------ X2

G------------------------------------
D------------------------------------
A-22222222---------------------------
E---------00000000-44444444-22222222-

G----------------------
D----------------------
A-2222222--------------
E--------2222222-0---0-

CHORUS
G-----------------------------------------------------
D-----------------------------------------------------
A-2222222222-4444444444-------------------------------
E----------------------44444444444-000000-4-222222222- X1

G-----------------------------------------
D-----------------------------------------
A-2222222222-4444444444-------------------
E----------------------44444444444-0--4-2- X1

INTRO X2

VERSE X2

END OF VERSE 2:
G--------------------------------------------------
D--------------------------------------------------
A-222222222----------------------------------------
E----------000000000-4444444444--0--4-2--000000000- X1

CHORUS X4

END LIKE THIS:
G------------
D------------
A----------2-
E-0---4-2----
            
Hard to play? Try these video lessons and learn fast. | Correct




comments powered by Disqus
↑ Back to top | Tablatures and chords are parodies/interpretations of the original songs. You may use it for private study, scholarship, research or language learning purposes only