» » »

Given The Chance Tabs (ver.4)

Artists:  A B C D E F G H I J K L M N O P Q R S T U V W X Y Z # 

Given The Chance Tabs (ver.4)

Starting Line
Rating:
0/5 (0 votes)

Hard to play? Try these video lessons and learn fast.
                (Intro)
The Starting Line
Say It Like You Mean It
Given the Chance (intro)


E------------------------------------------------------------------
B------------------------------------------------------------------
G--4--4--4-4--4-4--4--4--4-4--4-4--4--4--4-4--4-4--4--4--4-4--4-4--
D--4--4--4-4--4-4--4--4--4-4--4-4--4--4--4-4--4-4--4--4--4-4--4-4--
A--2--2--2-2--2-2--2--2--2-2--2-2--2--2--2-2--2-2--2--2--2-2--2-2--
E------------------------------------------------------------------


E-------------------------------------------------------------------------
B-------------------------------------------------------------------------
G--11-11-11-11-11-12--9--9--9-9--9-12-8--8--8-8--8-9--6--6--6-6--6-7------
D-------------------------------------------------------------------------
A--9--9--9--9--9--10--7--7--7-7--7-9--6--6--6-6--6-7--4--4--4-4--4-6------
E-------------------------------------------------------------------------


E------------------------------------------------------------------
B----------------------------------7--7--7-7--7-9------------------
G--8--8--8-8--8-9--4--4--4-4--4-4------------------6--6--6-6--6-8--
D----------------------------------4--4--4-4--4-6------------------
A--6--6--6-6--6-7--2--2--2-2--2-2------------------4--4--4-4--4-6--
E------------------------------------------------------------------
            
Hard to play? Try these video lessons and learn fast. | Correct




comments powered by Disqus
↑ Back to top | Tablatures and chords are parodies/interpretations of the original songs. You may use it for private study, scholarship, research or language learning purposes only