>
 >
Direction

Direction Guitar Tabs

Starting Line - Direction chords, tabs, tablatures, lyrics

Guitar lessons | Add/correct | Request | Top 50 tabs Artists:  A B C D E F G H I J K L M N O P Q R S T U V W X Y Z 0-9

Direction Guitar Tabs – Starting Line

CD, Sheet music, Poster

Do you like Direction? Share with your friends now
ChordsTabsUkulele
Tuning: Drop C# (C#, G#, C#, F#, A#, D#)

**UPDATE** 1/10/10
Fixed the intro (both parts).

**UPDATE** 7/15/10
Fixed Guitar 2's chorus (thanks to Love4Fire) :D.

Intro Pt. 1:
D#|--------------------------|
A#|--------------------------|
F#|--------------------------|
C#|-xx-55-55-55-777-5-5------|
G#|-xx-77-66-55-444-3-3(14x)-|
C#|-----------------5-5------|
PM:                   * (Gradually make your way up in volume.)

Intro Pt. 2: (I'm not sure if this is the guitar or bass part, but I like to play it.)
D#|----------------------------------|
A#|----------------------------------|
F#|----------------------------------|
C#|---5-----5-----5-----7---5-5------|
G#|-7---7-6---6-5---5-4---4-3-3(14x)-|
C#|-------------------------5-5------|
PM:                           * (Gradually make your way up in volume.)

Verse:
D#|---------------------------------------------------------|
A#|---------------------------------------------------------|
F#|---------------------------------------------------------|
C#|-2-0-2----8-8--2-0-2----7-8-7-8--2-0-2-------5(8x)-5(8x)-|
G#|-2-0-2----8-8--2-0-2----7-8-7-8--2-0-2----8--3-----4-----|
C#|-2-0-2----8-8--2-0-2----7-8-7-8--2-0-2----7--------------|

D#|------------------------------------------------------0-------------|
A#|------------------------------------------------------0-------------|
F#|--------------------------------------------3---3---3-0-------------|
C#|-2-0-2-x-----8--2-0-2-x-----7-8-7-8--2-0-2----2---2-----5(8x)-5(8x)-|
G#|-2-0-2-x(7x)-8--2-0-2-x(7x)-7-8-7-8--2-0-2--------------3-----4-----|
C#|-2-0-2-x-----8--2-0-2-x-----7-8-7-8--2-0-2--------------------------|

Repeat intro.

Chorus:
Guitar #1 (Rhythm):
D#|-----------------------------|-------------------------------------------------|
A#|-----------------------------|-------------------------------------------------|
F#|-----------------------------|-------------------------------------------------|
C#|-5------7------2------4------|-5------7------2------4-------------5--5---------|
G#|-5(16x)-7(16x)-2(16x)-5(16x)-|-5(16x)-7(16x)-2(16x)-5(16x)-12(8x)-3--3(14x)----|
C#|-5------7------2------4------|-5------7------2------4------11-----5--5---------|
PM:                                                                      ** (Gradually 
your way up in volume.)

Guitar #2 (Lead):
D#|--------------------------------|
A#|--------------------------------|
F#|-4-4-4/5-5-5/7------12----------|
C#|-x-x-x-x-x-x-x-(x3)-x-(x8)------|
G#|-2-2-2/3-3-3/5------10----------|
C#|--------------------------------|

D#|-------------------------------------|
A#|-------------------------------------|
F#|-4-4-4/5-5-5-7------14-----12--------|
C#|-x-x-x-x-x-x-x-(x3)-x-(x6)-x-(x2)----|
G#|-2-2-2/3-3-3/5------12-----10--------|
C#|-------------------------------------|2x

Repeat Verse and Chorus.

Bridge:
Guitar #1 (Rhythm):
D#|------------------------------|        |--------------------|
A#|------------------------------|        |--------------------|
F#|---------5--------------------|        |--------------------|
C#|-2-------5(16x)-5------7------|        |--------5--5--------|
G#|-2(16-x)-3------5(16x)-7(16x)-|        |-12(8x)-3--3(14x)---|
C#|-2--------------5------7------|2x, then|-11-----5--5--------|
PM:                                                    ** (Gradually make your way up in volume.)

Guitar #2 (Lead):
D#|-12-------------12----------------------------------------|
A#|----12-------------12-----------12-10--------12-10--------|
F#|-------9--11-12-------9--11-12---------11-12--------11-12-|
C#|----------------------------------------------------------|
G#|----------------------------------------------------------|
C#|----------------------------------------------------------|2x
                                   (Not so sure on this part)

Then the 1st half of the Verse is played w/o the guitar.  After that:
D#|-----------0-------------|
A#|-----------0-------------|
F#|-3---3---3-0-------------|
C#|---2---2-----5(8x)-5(8x)-|
G#|-------------3-----4-----|
C#|-------------------------|

Play the Chorus until the end of the song, and end with:
D#|----|
A#|----|
F#|-4~-|
C#|-5~-|
G#|-5~-|
C#|-5~-|





Comments


Popular Starting Line tabs & chords
Leaving 2 Bass Tabs
Surprise Surprise 2 Bass Tabs
Artistic License Tabs
Hello Houston 1 Tabs
Island 3 Tabs
Making Love To The Camera 1 Tabs
Photography Tabs
Piano Tabs
Something Left To Give 1 Tabs
I Could Be Wrong Ukulele


Song lyrics



↑ Back to top | Tablatures and chords are parodies/interpretations of the original songs. You may use it for private study, scholarship, research or language learning purposes only
© 2014 AZChords.com Contact us | Privacy policy | DMCA | Add/correct tabs | Request tabs | Top 50 tabs