>
 >
Decisions, Decisions

Decisions, Decisions Guitar Tabs

Starting Line - Decisions, Decisions chords, tabs, tablatures, lyrics

Guitar lessons | Add/correct | Request | Top 50 tabs Artists:  A B C D E F G H I J K L M N O P Q R S T U V W X Y Z 0-9

Decisions, Decisions Guitar Tabs – Starting Line

CD, Sheet music, Poster

Do you like Decisions, Decisions? Share with your friends now
Bass TabsBass Tabs v2ChordsTabs

Tuning:         Standard

* = palm mute
x = mute
~ = let ring
/ = slide up
h = hammer on
D = down stroke
U = up stroke

---------------------------------- GUITAR 1 ---------------------------------
-----------------------------------------------------------------------------
Here goes..


Intro
Clean
    0:00
e|---------------------------------------------------------------------------|
B|------3~----------3------3-----3~------------------------------------------|
G|--0-0----------------------------------------------------------------------| x4
D|--------------0-0----2-2---------------------------------------------------|
A|---------------------------3-3---------------------------------------------|
E|---------------------------------------------------------------------------|

Verse 1
    0:22
e|---------------------------------------------------------------------------|
B|--3-3~--------3-3----3-3---3-3~--------------------------------------------|
G|--0-0~--------0-0----0-0---0-0~--------------------------------------------| x4
D|--------------0-0----2-2---x-x---------------------------------------------|
A|---------------------------3-3~--------------------------------------------|
E|---------------------------------------------------------------------------|

    0:42            0:48       0:52            0:59       1:02
e|---------------|----------|---------------|----------|---------------------|
B|--33----3--3~--|------3~--|----3---3--3~--|------3~--|--3------------------|
G|--00--000000~--|--00000~--|--00--00-000~--|--00000~--|--0--x8--------------|
D|--55--55-555~--|--55555~--|--55--55-555~--|--55555~--|--5------------------|
A|---------------|----------|---------------|----------|---------------------|
E|---------------|----------|---------------|----------|---------------------|
    **  *****       ****       *** ** **       ****

Pre-Chorus
    1:04
e|---------------------------------------------------------------------------|
B|--10101010101010101010101010101010-----------------------------------------|
G|----------------------------------7777777-12-12-11-11-1212121212121212-----|
D|---------------------------------------------------------------------------|
A|---------------------------------------------------------------------------|
E|---------------------------------------------------------------------------|

e|---------------------------------------------------------------------------|
B|--------------------------10-7-7h8-----------------------------------------|
G|--11/12-11-7h9-9-7--777------------7---------------------------------------|
D|---------------------------------------------------------------------------|
A|---------------------------------------------------------------------------|
E|---------------------------------------------------------------------------|

    1:15
e|---------------------------------------------------------------------------|
B|--10101010101010101010101010101010-----------------------------------------|
G|----------------------------------7777777-12-12-11-11-1212121212121212-----|
D|---------------------------------------------------------------------------|
A|---------------------------------------------------------------------------|
E|---------------------------------------------------------------------------|

e|---------------------------------------------------------------------------|
B|---------------------------------------------------------------------------|
G|--11/12-11-7h9-77-777-777-5555---------------------------------------------|
D|--------------------------5555---------------------------------------------|
A|--------------------------3333---------------------------------------------|
E|---------------------------------------------------------------------------|
                            ****
Chorus
    1:26
e|---------------------------------------------------------------------------|
B|--3-3x--7-7-10--8--8--8--8--8-8-8-8-8-8-8-8--------------------------------|
G|--x-xx--x-x-x---x--x--x--x--x-x-x-x-x-x-x-x--------------------------------| x4
D|--5-5x--9-9-7---10-10-10-10-1010101010101010-------------------------------|
A|---------------------------------------------------------------------------|
E|---------------------------------------------------------------------------|


Verse 2
    1:47
e|---------------------------------------------------------------------------|
B|--333~---333-333-333~---5-5-3-3-5-5--333~---333-333-333~---5-5-5--5-5-3----|
G|--000~---000-000-000~----------------000~---000-000-000~-------------------|
D|--555~---555-555-555~----------------555~---555-555-555~-------------------|
A|---------------------------------------------------------------------------|
E|---------------------------------------------------------------------------|
    **     **  **  **                  **     **  **  **

e|---------------------------------------------------------------------------|
B|--333~---333-333-333~---5-5-3-3-5-5--333~---333-333-3-333-3-3333333--------|
G|--000~---000-000-000~----------------000~---000-000-0-000-0-0000000--------|
D|--555~---555-555-555~----------------555~---555-555-5-555-5-5555555--------|
A|---------------------------------------------------------------------------|
E|----------------------------------------------------D-DUD-D-UUUDUDU--------|
    **     **  **  **                  **     **  **          ***

Pre-Chorus

Chorus

Interlude
    2:52
e|---------------------------------------------------------------------------|
B|---------------------------------------------------------------------------|
G|---------------------------------------------------------------------------|
D|--5~-----------------------------------------------------------------------|
A|--5~-----------------------------------------------------------------------|
E|--3~-----------------------------------------------------------------------|

    3:02
e|---------------------------------------------------------------------------|
B|---------------------------------------------------------------------------|
G|-------------------7777777777777777----------------------------------------|
D|--5555555555554444-7777777777777777----------------------------------------|
A|--5555555555555555-5555555555555555-5h7-7-7h9-9-9h10-10-10h12-1010-1010----|
E|--3333333333333333---------------------------------------------------------|
    **************** ****************     *     *      *

e|---------------------------------------------------------------------------|
B|---------------------------------------------------------------------------|
G|-----------5555------------------------------------------------------------|
D|-----------5555------------------------------------------------------------|
A|--10101010-3333------------------------------------------------------------|
E|---------------------------------------------------------------------------|
             ****

Chorus

Ending
    3:34
e|---------------------------------------------------------------------------|
B|---------------------------------------------------------------------------|
G|--99x-999x-9-77x-777x-7-5~-------------------------------------------------|
D|--99x-999x-9-77x-777x-7-5~---5~--------------------------------------------|
A|--77x-777x-7-55x-555x-5-3~---5~--------------------------------------------|
E|-----------------------------3~--------------------------------------------|




---------------------------------- GUITAR 2 ---------------------------------
-----------------------------------------------------------------------------
And now for the second guitar..


Intro/Verse
Clean
    0:00
e|---------------------------------------------------------------------------|
B|------3~----------3-----3-----3-----3-----3-----3~-------------------------|
G|--0-0---------0-0---0-0---0-0---0-0---0-0---0-0----------------------------| x8
D|---------------------------------------------------------------------------|
A|---------------------------------------------------------------------------|
E|---------------------------------------------------------------------------|

Dist
    0:43
e|---------------------------------------------------------------------------|
B|------3~----------3-----3-----3-----3-----3-----3~-------------------------|
G|--0-0---------0-0---0-0---0-0---0-0---0-0---0-0----------------------------| x3
D|---------------------------------------------------------------------------|
A|---------------------------------------------------------------------------|
E|---------------------------------------------------------------------------|
                                              1:04
e|---------------------------------------------------------------------------|
B|------3~----------3-----3~-------------------------------------------------|
G|--0-0---------0-0---0-0----------------------------------------------------| x1
D|---------------------------------------------------------------------------|
A|--------------------------------------------<<<-Pick-slide-----------------|
E|---------------------------------------------------------------------------|

Pre-Chorus
    1:04
e|---------------------------------------------------------------------------|
B|---------------------------------------------------------------------------|
G|------------------777-777-777-777-999-999-999-777-555-555-555-555----------|
D|--555-555-555-555-777-777-777-777-999-999-999-777-555-555-555-555----------|
A|--555-555-555-555-555-555-555-555-777-777-777-555-333-333-333-333----------|
E|--333-333-333-333----------------------------------------------------------|

e|---------------------------------------------------------------------------|
B|---------------------------------------------------------------------------|
G|------------------777-777-777-777-------------------------------------5555-|
D|--555-555-555-555-777-777-777-777-------------------------------------5555-|
A|--555-555-555-555-555-555-555-555-5/7-77-7/9-99-9/10-1010101010101010-3333-|
E|--333-333-333-333----------------------------------------------------------|
                                                                        ****
Chorus
    1:26
e|---------------------------------------------------------------------------|
B|---------------------------------------------------------------------------|
G|--------9-9x--5-5-5-5-55555555---------------------------------------------| x4
D|--5-5x--9-9x--5-5-5-5-55555555---------------------------------------------|
A|--5-5x--7-7x--3-3-3-3-33333333---------------------------------------------|
E|--3-3x---------------------------------------------------------------------|

Verse

Pre-Chorus

Chorus

Interlude
    2:52
e|---------------------------------------------------------------------------|
B|---------------------------------------------------------------------------|
G|---------------------------------------------------------------------------|
D|--5~-----------------------------------------------------------------------|
A|--5~-----------------------------------------------------------------------|
E|--3~-----------------------------------------------------------------------|

    3:02
e|---------------------------------------------------------------------------|
B|------3~----------3-----3-----3~----------3-----3-----3~-------------------|
G|--0-0---------0-0---0-0---0-0---------0-0---0-0---0-0----------------------|
D|---------------------------------------------------------------------------|
A|---------------------------------------------------------------------------|
E|---------------------------------------------------------------------------|

e|---------------------------------------------------------------------------|
B|------3-----3-----3-----3-----3--------------------------------------------|
G|--0-0---0-0---0-0---0-0---0-0---5555---------------------------------------|
D|--------------------------------5555---------------------------------------|
A|--------------------------------3333---------------------------------------|
E|---------------------------------------------------------------------------|
                                  ****

Chorus

Ending
    3:34
e|---------------------------------------------------------------------------|
B|---------------------------------------------------------------------------|
G|--99x-999x-9-77x-777x-7-5~-------------------------------------------------|
D|--99x-999x-9-77x-777x-7-5~---5~--------------------------------------------|
A|--77x-777x-7-55x-555x-5-3~---5~--------------------------------------------|
E|-----------------------------3~--------------------------------------------|

Well.. that's my best shot at it! Have fun!
If you have any questions please send me an e-mail.





Comments


Popular Starting Line tabs & chords
Decisions, Decisions Bass Tabs
Classic Jazz Chords
Making Love To The Camera Chords
The Best Of Me Accoustic Chords
Drama Summer 2 Tabs
Nothing Short Of A Miracle Tabs
Piano Song 1 Tabs
The Best Of Me Tabs
Decisions Decisions Ukulele
World Ukulele


Song lyrics



↑ Back to top | Tablatures and chords are parodies/interpretations of the original songs. You may use it for private study, scholarship, research or language learning purposes only
© 2014 AZChords.com Contact us | Privacy policy | DMCA | Add/correct tabs | Request tabs | Top 50 tabs