» » »

Starting Line, Cut Print It Tabs (ver.1)

Artists:  A B C D E F G H I J K L M N O P Q R S T U V W X Y Z # 

Cut Print It Tabs (ver.1)

Starting Line Tabs
 Rating:
4/5 (4 votes)
Cut Print It lessons Tabs too difficult? Try these video lessons and learn fast
                -----------------------------------------------------------------------------
                     Cut! Print It! - The Starting Line
-----------------------------------------------------------------------------

Tuning: Drop D (DADGBe)

1st Verse      (This is the chord order for the verse)
e|----------------------------------------------------------|
B|----------------------------------------------------------|
G|--------5-----------5-----3-----5-----3-----3-------------|
D|--3--5--5--3--2--0--5--3--3--5--5--3--3--3--3--0--0--0----|
A|--3--5--3--3--2--0--3--3--1--5--3--3--1--3--1--0--0--0----|
D|--3--5-----3--2--0-----3-----5-----3-----3-----0--0--0----|

Chorus
e|----------------------------------------------------------|
B|----------------------------------------------------------|
G|--------3-----5-----2-----3-----------3-----5--2--3-------|
D|--0-----3-x8--5-x4--2-x4--3-x8--0-----3-x8--5--2--3-------|
A|--0-x8--1-----3-----0-----1-----0-x8--1-----3--0--1-------|
D|--0-----------------------------0-------------------------|

After Chorus
e|-----------|
B|-----------|
G|-----------|
D|--3--3-----|
A|--3--3-----|
D|--3--3-----|

2nd Verse
e|----------------------------------|
B|----------------------------------|
G|--------3-----------3-----5-------|
D|--3-----3-x8--0-----3-x4--5-x4----| x2
A|--3-x8--1-----0-x8--1-----3-------|
D|--3-----------0-------------------|

e|-------------------------------------------|
B|-------------------------------------------|
G|--------5-----------3-----------3--2--5----|
D|--5-----5-x8--3-----3-x8--5-----3--2--5----|
A|--5-x8--3-----3-x8--1-----5-x8--1--0--3----|
D|--5-----------3-----------5----------------|


Repeat Chorus x1


3rd Verse
e|----------------------------------------------------------|
B|----------------------------------------------------------|
G|-----2--3--5--------2-----3-----3--------2-----3-----3----|
D|--3--2--3--5--5-----2-x3--3-x3--3--5-----2-x3--3-x3--3----|
A|--3--0--1--3--5-x3--0-----1-----1--5-x3--0-----1-----1----|
D|--3-----------5--------------------5----------------------|

Chorus/Ending

e|---------------------------------|
B|---------------------------------|
G|--------3-----5-----2-----3------|
D|--0-----3-x8--5-x4--2-x4--3-x8---| x2
A|--0-x8--1-----3-----0-----1------|
D|--0------------------------------|

e|--------------|
B|--------------|
G|--------3-----|
D|--3-----3-x8--| x3
A|--3-x8--1-----|
D|--3-----------|

e|-------------|
B|-------------|
G|--5--2--3----|
D|--5--2--3----|
A|--3--0--1----|
D|-------------|
            
Submit corrections

comments powered by Disqus
↑ Back to top | Starting Line Tabs for Cut Print It. Lyrics for acoustic guitar and electric guitar. Tablatures and chords are parodies/interpretations of the original songs. You may use it for private study, scholarship, research or language learning purposes only