>
 >
Classic Jazz

Classic Jazz Guitar Tabs

Starting Line - Classic Jazz chords, tabs, tablatures, lyrics

Guitar lessons | Add/correct | Request | Top 50 tabs Artists:  A B C D E F G H I J K L M N O P Q R S T U V W X Y Z 0-9

Classic Jazz Guitar Tabs – Starting Line

CD, Sheet music, Poster

Do you like Classic Jazz? Share with your friends now
ChordsTabsUkulele
The Starting Line
"Classic Jazz"
The Make Yourself At Home EP-Incase you don't know, this song is on the enhanced 
section of the acoustic EP...it was a song that they wrote to be on Based On A True 
Story, but they didn't think it was good enough so they ended up scrapping it and it 
didn't make it on the album

Standard Tuning

Guitar 1-Matt
Guitar 2-Mike


--------
Guitar 1
--------

Intro(comes in with full band)
E|-------------------------------------------------------------------------------||
B|-------------------------------------------------------------------------------||
G|-7-7-77-7-7-7-7-77--7-7-77-7-7-7-7-77/-----------------------------------------||
D|-x-x-xx-x-x-x-x-xx--x-x-xx-x-x-x-x-xx---5-5-55-5/7-7-7-77--9-9-99-111111-11/77-||
A|-5-5-55-5-5-5-5-55--5-5-55-5-5-5-5-55/--5-5-55-5/7-7-7-77--x-x-xx--x-x-x--x-xx-||
E|----------------------------------------3-3-33-3/5-5-5-55--7-7-77--9-9-9--9/55-||
Verse
E|-------------------------------------------------------------------------------||
B|-------------------------------------------------------------------------------||
G|-7-7-77-7-7-7-7-77--7-7-77-7-7-7-7-77/-----------------------------------------||
D|-x-x-xx-x-x-x-x-xx--x-x-xx-x-x-x-x-xx---5-5-55-5/7-7-7-77--9-9-99-111111-11/77-||
A|-5-5-55-5-5-5-5-55--5-5-55-5-5-5-5-55/--5-5-55-5/7-7-7-77--x-x-xx--x-x-x--x-xx-||
E|----------------------------------------3-3-33-3/5-5-5-55--7-7-77--9-9-9--9/55-||

E|-------------------------------------------------------------------------------||
B|-------------------------------------------------------------------------------||
G|-7-7-77-7-7-7-7-77--7-7-77-7-7-7-7-77/-----------------------------------------||
D|-x-x-xx-x-x-x-x-xx--x-x-xx-x-x-x-x-xx---5-5-55-5/7-7-7-77--9-9-99-111111-11/77-||
A|-5-5-55-5-5-5-5-55--5-5-55-5-5-5-5-55/--5-5-55-5/7-7-7-77--x-x-xx--x-x-x--x-xx-||
E|----------------------------------------3-3-33-3/5-5-5-55--7-7-77--9-9-9--9/55-||
Pre Chorus
E|-------------------------------------------||
B|-------------------------------------------||
G|-------------------------------------------||
D|-2-2---2-2---5~------2-2---2-2---5~--------||
A|-2-2-2-2-2-2-5~------2-2-2-2-2-2-5~--------||
E|-0-0-0-0-0-0-3~------0-0-0-0-0-0-3~--------||
       .     .             .     .
Chorus
E|-------------------------------------------------------------||
B|-------------------------------------------------------------||
G|-----------7-7-7-7-7-----------7-7-7-7-7---------------------||
D|-7-7-7-7-7-7-7-7-7-7-7-7-7-7-7-x-x-x-x-x-5-5-5-5-5-5-5-5-5-5-||
A|-4-4-4-4-4-5-5-5-5-5-7-7-7-7-7-5-5-5-5-5-5-5-5-5-5-5-5-5-5-5-||
E|---------------------5-5-5-5-5-----------3-3-3-3-3-3-3-3-3-3-||

E|-------------------------||
B|-------------------------||
G|-------------------------||
D|-5---------5---------5---||
A|-5-5-5-5-5-5-5-5-5-5-5-5-||
E|-3-3-3-3-3-3-3-3-3-3-3-3-||
     . . . .   . . . .   .
E|-------------------------------------------------------------||
B|-------------------------------------------------------------||
G|-7-7-7-7-7-7-7-7-7-7-7-7-7-7-7-7-7-7-7-7-7-7-7-7-7-7-7-7-7-7-||
D|-x-x-x-x-x-x-x-x-x-x-x-x-x-x-x-x-x-x-x-x-x-x-x-x-x-x-x-x-x-x-||
A|-5-5-5-5-5-5-5-5-5-5-5-5-5-5-5-5-5-5-5-5-5-5-5-5-5-5-5-5-5-5-||
E|-------------------------------------------------------------||

E|--------||
B|--------||
G|-7~-----||
D|-x------||
A|-5~-----||
E|--------||

E|-------------------------------------------------||
B|-------------------------------------------------||
G|-------------------------------------------------||
D|-2-2---2-2---5-5---5-5---2-2---2-2---5-5-5-7-7-7-||
A|-2-2-2-2-2-2-5-5-5-5-5-5-2-2-2-2-2-2-5-5-5-7-7-7-||
E|-0-0-0-0-0-0-3-3-3-3-3-3-0-0-0-0-0-0-3-3-3-5-5-5-||
       .     .     .     .     .     .
Intro
E|-------------------------------------------------------------------------------||
B|-------------------------------------------------------------------------------||
G|-7-7-77-7-7-7-7-77--7-7-77-7-7-7-7-77/-----------------------------------------||
D|-x-x-xx-x-x-x-x-xx--x-x-xx-x-x-x-x-xx---5-5-55-5/7-7-7-77--9-9-99-111111-11/77-||
A|-5-5-55-5-5-5-5-55--5-5-55-5-5-5-5-55/--5-5-55-5/7-7-7-77--x-x-xx--x-x-x--x-xx-||
E|----------------------------------------3-3-33-3/5-5-5-55--7-7-77--9-9-9--9/55-||

E|-------------------------------------------------------------------------------||
B|-------------------------------------------------------------------------------||
G|-7-7-77-7-7-7-7-77--7-7-77-7-7-7-7-77/-----------------------------------------||
D|-x-x-xx-x-x-x-x-xx--x-x-xx-x-x-x-x-xx---5-5-55-5/7-7-7-77--9-9-99-111111-11/77-||
A|-5-5-55-5-5-5-5-55--5-5-55-5-5-5-5-55/--5-5-55-5/7-7-7-77--x-x-xx--x-x-x--x-xx-||
E|----------------------------------------3-3-33-3/5-5-5-55--7-7-77--9-9-9--9/55-||
Verse
E|------------------||
B|------------------||
G|-7~---------------||
D|-x----------------||
A|-5~---------------||
E|------------------||

E|------------------------------------||
B|------------------------------------||
G|-7---7----6---6----7---7----6---6---||

D|---7---7----7---7----7---7----7---7-||
A|------------------------------------||
E|------------------------------------||
Pre Chorus
E|-------------------------------------------||
B|-------------------------------------------||
G|-------------------------------------------||
D|-2-2---2-2---5~------2-2---2-2---5~--------||
A|-2-2-2-2-2-2-5~------2-2-2-2-2-2-5~--------||
E|-0-0-0-0-0-0-3~------0-0-0-0-0-0-3~--------||
       .     .             .     .
E|--------------------------------------------------||
B|--------------------------------------------------||
G|--------------------------------------------------||
D|-2-2-2-2-2-2-5-5-5-5-5-5--2-2-2-2-2-2-5-5-5-7-7-7-||
A|-2-2-2-2-2-2-5-5-5-5-5-5--2-2-2-2-2-2-5-5-5-7-7-7-||
E|-0-0-0-0-0-0-3-3-3-3-3-3--0-0-0-0-0-0-3-3-3-5-5-5-||
Chorus
E|-------------------------------------------------------------||
B|-------------------------------------------------------------||
G|-----------7-7-7-7-7-----------7-7-7-7-7---------------------||
D|-7-7-7-7-7-7-7-7-7-7-7-7-7-7-7-x-x-x-x-x-5-5-5-5-5-5-5-5-5-5-||
A|-4-4-4-4-4-5-5-5-5-5-7-7-7-7-7-5-5-5-5-5-5-5-5-5-5-5-5-5-5-5-||
E|---------------------5-5-5-5-5-----------3-3-3-3-3-3-3-3-3-3-||

E|-------------------------||
B|-------------------------||
G|-------------------------||
D|-5---------5---------5---||
A|-5-5-5-5-5-5-5-5-5-5-5-5-||
E|-3-3-3-3-3-3-3-3-3-3-3-3-||
     . . . .   . . . .   .
E|-------------------------------------------------------------||
B|-------------------------------------------------------------||
G|-7-7-7-7-7-7-7-7-7-7-7-7-7-7-7-7-7-7-7-7-7-7-7-7-7-7-7-7-7-7-||
D|-x-x-x-x-x-x-x-x-x-x-x-x-x-x-x-x-x-x-x-x-x-x-x-x-x-x-x-x-x-x-||
A|-5-5-5-5-5-5-5-5-5-5-5-5-5-5-5-5-5-5-5-5-5-5-5-5-5-5-5-5-5-5-||
E|-------------------------------------------------------------||

E|--------||
B|--------||
G|-7~-----||
D|-x------||
A|-5~-----||
E|--------||

E|-------------------------------------------------||
B|-------------------------------------------------||
G|-------------------------------------------------||
D|-2-2---2-2---5-5---5-5---2-2---2-2---5-5-5-7-7-7-||
A|-2-2-2-2-2-2-5-5-5-5-5-5-2-2-2-2-2-2-5-5-5-7-7-7-||
E|-0-0-0-0-0-0-3-3-3-3-3-3-0-0-0-0-0-0-3-3-3-5-5-5-||
       .     .     .     .     .     .
E|--------||
B|--------||
G|-7~-----||
D|-x------||
A|-5~-----||
E|--------||
Bridge
(silent for a long time then when it picks up speed, do this)
E|-------------------------------------------------------------||
B|-------------------------------------------------------------||
G|-7-7-7-7-7-7-7-7-7-7-7-7-7-7-7-7-7-7-7-7-7-7-7-7-7-7-7-7-7-7-||
D|-x-x-x-x-x-x-x-x-x-x-x-x-x-x-x-x-x-x-x-x-x-x-x-x-x-x-x-x-x-x-||
A|-5-5-5-5-5-5-5-5-5-5-5-5-5-5-5-5-5-5-5-5-5-5-5-5-5-5-5-5-5-5-||
E|-------------------------------------------------------------||

E|-------------------------------------------------------------||
B|-------------------------------------------------------------||
G|-7-7-7-7-7-7-7-7-7-7-7-7-7-7-7-7-7-7-7-7-7-7-7-7-7-7-7-7-7-7-||
D|-x-x-x-x-x-x-x-x-x-x-x-x-x-x-x-x-x-x-x-x-x-x-x-x-x-x-x-x-x-x-||
A|-5-5-5-5-5-5-5-5-5-5-5-5-5-5-5-5-5-5-5-5-5-5-5-5-5-5-5-5-5-5-||
E|-------------------------------------------------------------||

E|-------------------------------------------------------------||
B|-------------------------------------------------------------||
G|-------------------------------------------------------------||
D|-5-5-5-5-5-5-5-5-5-5-5-5-5-5-5-5-5-5-5-5-5-5-5-5-7-7-7-7-7-7-||
A|-5-5-5-5-5-5-5-5-5-5-5-5-5-5-5-5-5-5-5-5-5-5-5-5-7-7-7-7-7-7-||
E|-3-3-3-3-3-3-3-3-3-3-3-3-3-3-3-3-3-3-3-3-3-3-3-3-5-5-5-5-5-5-||

E|---------------------------------------------------xxxxxx-||
B|---------------------------------------------------xxxxxx-||
G|---------------------------------------------------xxxxxx-||
D|-5-5-5-5-5-5-5-5-5-5-5-5-5-5-5-5-5-5-5-5-5-5-5-5-7-xxxxxx-||
A|-5-5-5-5-5-5-5-5-5-5-5-5-5-5-5-5-5-5-5-5-5-5-5-5-7-xxxxxx-||
E|-3-3-3-3-3-3-3-3-3-3-3-3-3-3-3-3-3-3-3-3-3-3-3-3-5-xxxxxx-||
Chorus
E|-------------------------------------------------------------||
B|-------------------------------------------------------------||
G|-----------7-7-7-7-7-----------7-7-7-7-7---------------------||
D|-7-7-7-7-7-7-7-7-7-7-7-7-7-7-7-x-x-x-x-x-5-5-5-5-5-5-5-5-5-5-||
A|-4-4-4-4-4-5-5-5-5-5-7-7-7-7-7-5-5-5-5-5-5-5-5-5-5-5-5-5-5-5-||
E|---------------------5-5-5-5-5-----------3-3-3-3-3-3-3-3-3-3-||

E|-------------------------||
B|-------------------------||
G|-------------------------||
D|-5---------5---------5---||
A|-5-5-5-5-5-5-5-5-5-5-5-5-||
E|-3-3-3-3-3-3-3-3-3-3-3-3-||
     . . . .   . . . .   .
E|-------------------------------------------------------------||
B|-------------------------------------------------------------||
G|-7-7-7-7-7-7-7-7-7-7-7-7-7-7-7-7-7-7-7-7-7-7-7-7-7-7-7-7-7-7-||
D|-x-x-x-x-x-x-x-x-x-x-x-x-x-x-x-x-x-x-x-x-x-x-x-x-x-x-x-x-x-x-||
A|-5-5-5-5-5-5-5-5-5-5-5-5-5-5-5-5-5-5-5-5-5-5-5-5-5-5-5-5-5-5-||
E|-------------------------------------------------------------||

E|--------||
B|--------||
G|-7~-----||
D|-x------||
A|-5~-----||
E|--------||

E|-------------------------------------------------------------||
B|-------------------------------------------------------------||
G|-----------7-7-7-7-7-----------7-7-7-7-7---------------------||
D|-7-7-7-7-7-7-7-7-7-7-7-7-7-7-7-x-x-x-x-x-5-5-5-5-5-5-5-5-5-5-||
A|-4-4-4-4-4-5-5-5-5-5-7-7-7-7-7-5-5-5-5-5-5-5-5-5-5-5-5-5-5-5-||
E|---------------------5-5-5-5-5-----------3-3-3-3-3-3-3-3-3-3-||

E|-------------------------||
B|-------------------------||
G|-------------------------||
D|-5---------5---------5---||
A|-5-5-5-5-5-5-5-5-5-5-5-5-||
E|-3-3-3-3-3-3-3-3-3-3-3-3-||
     . . . .   . . . .   .
E|-------------------------------------------------------------||
B|-------------------------------------------------------------||
G|-7-7-7-7-7-7-7-7-7-7-7-7-7-7-7-7-7-7-7-7-7-7-7-7-7-7-7-7-7-7-||
D|-x-x-x-x-x-x-x-x-x-x-x-x-x-x-x-x-x-x-x-x-x-x-x-x-x-x-x-x-x-x-||
A|-5-5-5-5-5-5-5-5-5-5-5-5-5-5-5-5-5-5-5-5-5-5-5-5-5-5-5-5-5-5-||
E|-------------------------------------------------------------||

E|-------------------------||
B|-------------------------||
G|-7-7-7-7-7-7-7-7-7-7-7-7-||
D|-x-x-x-x-x-x-x-x-x-x-x-x-||
A|-5-5-5-5-5-5-5-5-5-5-5-5-||
E|-------------------------||
Last Chorus
E|-------------------------------------------------------------------------------||
B|-------------------------------------------------------------------------------||
G|-7-7-77-7-7-7-7-77--7-7-77-7-7-7-7-77/-----------------------------------------||
D|-x-x-xx-x-x-x-x-xx--x-x-xx-x-x-x-x-xx---5-5-55-5/7-7-7-77--9-9-99-111111-11/77-||
A|-5-5-55-5-5-5-5-55--5-5-55-5-5-5-5-55/--5-5-55-5/7-7-7-77--x-x-xx--x-x-x--x-xx-||
E|----------------------------------------3-3-33-3/5-5-5-55--7-7-77--9-9-9--9/55-||

E|-------------------------------------------------------------------------------||
B|-------------------------------------------------------------------------------||
G|-7-7-77-7-7-7-7-77--7-7-77-7-7-7-7-77/-----------------------------------------||
D|-x-x-xx-x-x-x-x-xx--x-x-xx-x-x-x-x-xx---5-5-55-5/7-7-7-77--9-9-99-111111-11/77-||
A|-5-5-55-5-5-5-5-55--5-5-55-5-5-5-5-55/--5-5-55-5/7-7-7-77--x-x-xx--x-x-x--x-xx-||
E|----------------------------------------3-3-33-3/5-5-5-55--7-7-77--9-9-9--9/55-||
Outro
E|----------------------------------------||
B|----------------------------------------||
G|----------------------------------------||
D|-2-2---2-2---5-5---5-5---2-2---2-2---5~-||
A|-2-2-2-2-2-2-5-5-5-5-5-5-2-2-2-2-2-2-5~-||
E|-0-0-0-0-0-0-3-3-3-3-3-3-0-0-0-0-0-0-3~-||
       .     .     .     .     .     .

--------
Guitar 2
--------

Intro-I tried showing the strumming but it's confusing...my advice is to listen to 
the song and look at this tab at the same time before you just start playing
E|--0--0--0-0--0--0--0--0--0-0--0--0--0--0--0-0--0--0-0--0--0-0-||
B|-10-10-1010-10/12-12-12-1212-12--0--0--0--0-0--0--0-0--0--0-0-||
G|--9--9--9-9--9/11-11-11-1111-11--x--x--x--x-x--x--x-x--x--x-x-||
D|--0--0--0-0--0--0--0--0--0-0--0-16-16-16-1616-16/1414-14/1212-||
A|--x--x--x-x--x--x--x--x--x-x--x--x--x--x--x-x--x--x-x--x--x-x-||
E|-10-10-1010-10/12-12-12-1212-12/14-14-14-1414-14/1212-12/1010-||

E|--0--0--0-0--0--0--0--0--0-0--0--0--0--0--0-0--0--0-0--0--0-0-||
B|--0--0--0-0--0--0--0--0--0-0--0--0--0--0--0-0--0--0-0--0--0-0-||
G|--2--2--2-2--2/-4--4--4--4-4--4--7--7--7--7-7--9--9-9--9--9-9-||
D|--0--0--0-0--0--0--0--0--0-0--0--x--x--x--x-x--x--x-x--x--7-7-||
A|--x--x--x-x--x--x--x--x--x-x--x--5--5--5--5-5--7--7-7--7--0-0-||
E|--3--3--3-3--3/-5--5--5--5-5--5--7--7--7--7-7--9--9-9--9--x-x-||

E|---------------------------------0--0--0--0-0--0--0-0--0--0-0-||
B|---------------------------------0--0--0--0-0--0--0-0--0--0-0-||
G|-14-14-1414-14/16-16-16-1616-16--x--x--x--x-x--x--x-x--x--x-x-||
D|--x--x--x-x--x--x--x--x--x-x--x/16-16-16-1616-16/1414-14/1212-||
A|-12-12-1212-12/14-14-14-1414-14--x--x--x--x-x--x--x-x--x--x-x-||
E|-------------------------------/14-14-14-1414-14/1212-12/1010-||

E|--0--0--0-0--0--0--0--0--0-0--0--0--0--0--0-0--0--0-0--0--0-0-||
B|--0--0--0-0--0--0--0--0--0-0--0--0--0--0--0-0--0--0-0--0--0-0-||
G|--2--2--2-2--2/-4--4--4--4-4--4--7--7--7--7-7--9--9-9--9--9-9-||
D|--0--0--0-0--0--0--0--0--0-0--0--x--x--x--x-x--x--x-x--x--7-7-||
A|--x--x--x-x--x--x--x--x--x-x--x--5--5--5--5-5--7--7-7--7--0-0-||
E|--3--3--3-3--3/-5--5--5--5-5--5--7--7--7--7-7--9--9-9--9--x-x-||
Verse
E|--0--0--0-0--0--0--0--0--0-0--0--0--0--0--0-0--0--0-0--0--0-0-||
B|-10-10-1010-10/12-12-12-1212-12--0--0--0--0-0--0--0-0--0--0-0-||
G|--9--9--9-9--9/11-11-11-1111-11--x--x--x--x-x--x--x-x--x--x-x-||
D|--0--0--0-0--0--0--0--0--0-0--0-16-16-16-1616-16/1414-14/1212-||
A|--x--x--x-x--x--x--x--x--x-x--x--x--x--x--x-x--x--x-x--x--x-x-||
E|-10-10-1010-10/12-12-12-1212-12/14-14-14-1414-14/1212-12/1010-||

E|--0--0--0-0--0--0--0--0--0-0--0--0--0--0--0-0--0--0-0--0--0-0-||
B|--0--0--0-0--0--0--0--0--0-0--0--0--0--0--0-0--0--0-0--0--0-0-||
G|--2--2--2-2--2/-4--4--4--4-4--4--7--7--7--7-7--9--9-9--9--9-9-||
D|--0--0--0-0--0--0--0--0--0-0--0--x--x--x--x-x--x--x-x--x--7-7-||
A|--x--x--x-x--x--x--x--x--x-x--x--5--5--5--5-5--7--7-7--7--0-0-||
E|--3--3--3-3--3/-5--5--5--5-5--5--7--7--7--7-7--9--9-9--9--x-x-||

E|---------------------------------0--0--0--0-0--0--0-0--0--0-0-||
B|---------------------------------0--0--0--0-0--0--0-0--0--0-0-||
G|-14-14-1414-14/16-16-16-1616-16--x--x--x--x-x--x--x-x--x--x-x-||
D|--x--x--x-x--x--x--x--x--x-x--x/16-16-16-1616-16/1414-14/1212-||
A|-12-12-1212-12/14-14-14-1414-14--x--x--x--x-x--x--x-x--x--x-x-||
E|-------------------------------/14-14-14-1414-14/1212-12/1010-||

E|--0--0--0-0--0--0--0--0--0-0--0--0--0--0--0-0--0--0-0--0--0-0-||
B|--0--0--0-0--0--0--0--0--0-0--0--0--0--0--0-0--0--0-0--0--0-0-||
G|--2--2--2-2--2/-4--4--4--4-4--4--7--7--7--7-7--9--9-9--9--9-9-||
D|--0--0--0-0--0--0--0--0--0-0--0--x--x--x--x-x--x--x-x--x--7-7-||
A|--x--x--x-x--x--x--x--x--x-x--x--5--5--5--5-5--7--7-7--7--0-0-||
E|--3--3--3-3--3/-5--5--5--5-5--5--7--7--7--7-7--9--9-9--9--x-x-||
Pre Chorus
E|-------------------------------------------||
B|-------------------------------------------||
G|-------------2~------------------2~--------||
D|-2-2---2-2---0~------9-9---9-9---0~--------||
A|-2-2-2-2-2-2-x~------7-7-7-7-7-7-x~--------||
E|-0-0-0-0-0-0-3~------0-0-0-0-0-0-3~--------||
       .     .             .     .
Chorus
E|-0-0-0-0-0-0-0-0-0-0-0-0-0-0-0-0-0-0-0-0-0-0-0-0-0-0-0-0-0-0-||
B|-0-0-0-0-0-0-0-0-0-0-0-0-0-0-0-0-0-0-0-0-0-0-0-0-0-0-0-0-0-0-||
G|-x-x-x-x-x-7-7-7-7-7-x-x-x-x-x-x-x-x-x-x-2-2-2-2-2-2-2-2-2-2-||
D|-7-7-7-7-7-7-7-7-7-7-7-7-7-7-7-7-7-7-7-7-0-0-0-0-0-0-0-0-0-0-||
A|-4-4-4-4-4-5-5-5-5-5-7-7-7-7-7-5-5-5-5-5-x-x-x-x-x-x-x-x-x-x-||
E|---------------------5-5-5-5-5-7-7-7-7-7-3-3-3-3-3-3-3-3-3-3-||

E|-------------------------||
B|-------------------------||
G|-2---------2---------2---||
D|-0-0-0-0-0-0-0-0-0-0-0-0-||
A|-x-x-x-x-x-x-x-x-x-x-x-x-||
E|-3-3-3-3-3-3-3-3-3-3-3-3-||
     . . . .   . . . .   .
E|-0-0-0-0-0-0-0-0-0-0-0-0-0-0-0-0-0-0-0-0-0-0-0-0-0-0-0-0-0-0-||
B|-0-0-0-0-0-0-0-0-0-0-0-0-0-0-0-0-0-0-0-0-0-0-0-0-0-0-0-0-0-0-||
G|-7-7-7-7-7-x-x-x-x-x-x-x-x-x-x-x-x-x-x-x-2-2-2-2-2-2-2-2-2-2-||
D|-7-7-7-7-7-7-7-7-7-7-7-7-7-7-7-7-7-7-7-7-0-0-0-0-0-0-0-0-0-0-||
A|-5-5-5-5-5-7-7-7-7-7-5-5-5-5-5-7-7-7-7-7-x-x-x-x-x-x-x-x-x-x-||
E|-----------5-5-5-5-5-7-7-7-7-7-5-5-5-5-5-3-3-3-3-3-3-3-3-3-3-||

E|-0~-----||
B|-0~-----||
G|-2~-----||
D|-0~-----||
A|-x------||
E|-3~-----||

E|-------------------------------------------------||
B|-------------------------------------------------||
G|-------------2-2---2-2---------------2-2-2-4-4-4-||
D|-2-2---2-2---0-0-0-0-0-0-9-9---9-9---0-0-0-0-0-0-||
A|-2-2-2-2-2-2-x-x-x-x-x-x-7-7-7-7-7-7-x-x-x-x-x-x-||
E|-0-0-0-0-0-0-3-3-3-3-3-3-0-0-0-0-0-0-3-3-3-5-5-5-||
       .     .     .     .     .     .
Intro
E|--0--0--0-0--0--0--0--0--0-0--0--0--0--0--0-0--0--0-0--0--0-0-||
B|-10-10-1010-10/12-12-12-1212-12--0--0--0--0-0--0--0-0--0--0-0-||
G|--9--9--9-9--9/11-11-11-1111-11--x--x--x--x-x--x--x-x--x--x-x-||
D|--0--0--0-0--0--0--0--0--0-0--0-16-16-16-1616-16/1414-14/1212-||
A|--x--x--x-x--x--x--x--x--x-x--x--x--x--x--x-x--x--x-x--x--x-x-||
E|-10-10-1010-10/12-12-12-1212-12/14-14-14-1414-14/1212-12/1010-||

E|--0--0--0-0--0--0--0--0--0-0--0--0--0--0--0-0--0--0-0--0--0-0-||
B|--0--0--0-0--0--0--0--0--0-0--0--0--0--0--0-0--0--0-0--0--0-0-||
G|--2--2--2-2--2/-4--4--4--4-4--4--7--7--7--7-7--9--9-9--9--9-9-||
D|--0--0--0-0--0--0--0--0--0-0--0--x--x--x--x-x--x--x-x--x--7-7-||
A|--x--x--x-x--x--x--x--x--x-x--x--5--5--5--5-5--7--7-7--7--0-0-||
E|--3--3--3-3--3/-5--5--5--5-5--5--7--7--7--7-7--9--9-9--9--x-x-||

E|---------------------------------0--0--0--0-0--0--0-0--0--0-0-||
B|---------------------------------0--0--0--0-0--0--0-0--0--0-0-||
G|-14-14-1414-14/16-16-16-1616-16--x--x--x--x-x--x--x-x--x--x-x-||
D|--x--x--x-x--x--x--x--x--x-x--x/16-16-16-1616-16/1414-14/1212-||
A|-12-12-1212-12/14-14-14-1414-14--x--x--x--x-x--x--x-x--x--x-x-||
E|-------------------------------/14-14-14-1414-14/1212-12/1010-||

E|--0--0--0-0--0--0--0--0--0-0--0--0--0--0--0-0--0--0-0--0--0-0-||
B|--0--0--0-0--0--0--0--0--0-0--0--0--0--0--0-0--0--0-0--0--0-0-||
G|--2--2--2-2--2/-4--4--4--4-4--4--7--7--7--7-7--9--9-9--9--9-9-||
D|--0--0--0-0--0--0--0--0--0-0--0--x--x--x--x-x--x--x-x--x--7-7-||
A|--x--x--x-x--x--x--x--x--x-x--x--5--5--5--5-5--7--7-7--7--0-0-||
E|--3--3--3-3--3/-5--5--5--5-5--5--7--7--7--7-7--9--9-9--9--x-x-||
Verse
E|--0--0--0-0--0--0--0--0--0-0--0--0--0--0--0-0--0--0-0--0--0-0-||
B|-10-10-1010-10/12-12-12-1212-12--0--0--0--0-0--0--0-0--0--0-0-||
G|--9--9--9-9--9/11-11-11-1111-11--x--x--x--x-x--x--x-x--x--x-x-||
D|--0--0--0-0--0--0--0--0--0-0--0-16-16-16-1616-16/1414-14/1212-||
A|--x--x--x-x--x--x--x--x--x-x--x--x--x--x--x-x--x--x-x--x--x-x-||
E|-10-10-1010-10/12-12-12-1212-12/14-14-14-1414-14/1212-12/1010-||

E|--0--0--0-0--0--0--0--0--0-0--0--0--0--0--0-0--0--0-0--0--0-0-||
B|--0--0--0-0--0--0--0--0--0-0--0--0--0--0--0-0--0--0-0--0--0-0-||
G|--2--2--2-2--2/-4--4--4--4-4--4--7--7--7--7-7--9--9-9--9--9-9-||
D|--0--0--0-0--0--0--0--0--0-0--0--x--x--x--x-x--x--x-x--x--7-7-||
A|--x--x--x-x--x--x--x--x--x-x--x--5--5--5--5-5--7--7-7--7--0-0-||
E|--3--3--3-3--3/-5--5--5--5-5--5--7--7--7--7-7--9--9-9--9--x-x-||

E|---------------------------------0--0--0--0-0--0--0-0--0--0-0-||
B|---------------------------------0--0--0--0-0--0--0-0--0--0-0-||
G|-14-14-1414-14/16-16-16-1616-16--x--x--x--x-x--x--x-x--x--x-x-||
D|--x--x--x-x--x--x--x--x--x-x--x/16-16-16-1616-16/1414-14/1212-||
A|-12-12-1212-12/14-14-14-1414-14--x--x--x--x-x--x--x-x--x--x-x-||
E|-------------------------------/14-14-14-1414-14/1212-12/1010-||

E|--0--0--0-0--0--0--0--0--0-0--0--0--0--0--0-0--0--0-0--0--0-0-||
B|--0--0--0-0--0--0--0--0--0-0--0--0--0--0--0-0--0--0-0--0--0-0-||
G|--2--2--2-2--2/-4--4--4--4-4--4--7--7--7--7-7--9--9-9--9--9-9-||
D|--0--0--0-0--0--0--0--0--0-0--0--x--x--x--x-x--x--x-x--x--7-7-||
A|--x--x--x-x--x--x--x--x--x-x--x--5--5--5--5-5--7--7-7--7--0-0-||
E|--3--3--3-3--3/-5--5--5--5-5--5--7--7--7--7-7--9--9-9--9--x-x-||
Pre Chorus
E|-------------------------------------------||
B|-------------------------------------------||
G|-------------2~------------------2~--------||
D|-2-2---2-2---0~------9-9---9-9---0~--------||
A|-2-2-2-2-2-2-x~------7-7-7-7-7-7-x~--------||
E|-0-0-0-0-0-0-3~------0-0-0-0-0-0-3~--------||
       .     .             .     .
E|-------------------------------------------------||
B|-------------------------------------------------||
G|-------------2-2-2-2-2-2-------------2-2-2-4-4-4-||
D|-2-2-2-2-2-2-0-0-0-0-0-0-9-9-9-9-9-9-0-0-0-0-0-0-||
A|-2-2-2-2-2-2-x-x-x-x-x-x-7-7-7-7-7-7-x-x-x-x-x-x-||
E|-0-0-0-0-0-0-3-3-3-3-3-3-0-0-0-0-0-0-3-3-3-5-5-5-||
Chorus
E|-0-0-0-0-0-0-0-0-0-0-0-0-0-0-0-0-0-0-0-0---------------------||
B|-0-0-0-0-0-0-0-0-0-0-0-0-0-0-0-0-0-0-0-0---------------------||
G|-x-x-x-x-x-7-7-7-7-7-x-x-x-x-x-x-x-x-x-x12121212121212121212-||
D|-7-7-7-7-7-7-7-7-7-7-7-7-7-7-7-7-7-7-7-7-x-x-x-x-x-x-x-x-x-x-||
A|-4-4-4-4-4-5-5-5-5-5-7-7-7-7-7-5-5-5-5-510101010101010101010-||
E|---------------------5-5-5-5-5-7-7-7-7-7---------------------||

E|-------------------------||
B|-------------------------||
G|-12~------12~-------12~--||
D|--x--------x---------x---||
A|-10~------10~-------10~--||
E|-------------------------||
     . . . .   . . . .   .
E|-0-0-0-0-0-0-0-0-0-0-0-0-0-0-0-0-0-0-0-0-0-0-0-0-0-0-0-0-0-0-||
B|-0-0-0-0-0-0-0-0-0-0-0-0-0-0-0-0-0-0-0-0-0-0-0-0-0-0-0-0-0-0-||
G|-7-7-7-7-7-x-x-x-x-x-x-x-x-x-x-x-x-x-x-x-2-2-2-2-2-2-2-2-2-2-||
D|-7-7-7-7-7-7-7-7-7-7-7-7-7-7-7-7-7-7-7-7-0-0-0-0-0-0-0-0-0-0-||
A|-5-5-5-5-5-7-7-7-7-7-5-5-5-5-5-7-7-7-7-7-x-x-x-x-x-x-x-x-x-x-||
E|-----------5-5-5-5-5-7-7-7-7-7-5-5-5-5-5-3-3-3-3-3-3-3-3-3-3-||

E|-0~-----||
B|-0~-----||
G|-2~-----||
D|-0~-----||
A|-x------||
E|-3~-----||

E|-------------------------------------------------||
B|-------------------------------------------------||
G|-------------2-2---2-2---------------2-2-2-4-4-4-||
D|-2-2---2-2---0-0-0-0-0-0-9-9---9-9---0-0-0-0-0-0-||
A|-2-2-2-2-2-2-x-x-x-x-x-x-7-7-7-7-7-7-x-x-x-x-x-x-||
E|-0-0-0-0-0-0-3-3-3-3-3-3-0-0-0-0-0-0-3-3-3-5-5-5-||
       .     .     .     .     .     .
Bridge
E|------------------------------0~--------0~-------||
B|-------3~-------------3~------0~--------0~---3~--||
G|------------------------------2~--------2~---2~--||
D|---0--------7~----0-------7~--0~----7~--0~---0~--||
A|-2---2------7~0h2---2-----7~--x-----7~--x--------||
E|------------5~------------5~--3~----5~--3~-------||

E|--------------------------0~---------------2~-----------||
B|-------3~-------3~--------0~---------------3~-----------||
G|----------------2~--------2~---------------2~---2~--2~--||
D|---0--------7~--0~----7~--0~---------------0~---0~--0~--||
A|-2---2------7~--2~----7~--x------7-5---2--------x---x---||
E|------------5~--------5~--3~---5-----3---3------3~--3~--||

E|-0-0-0-0-0-0-0-0-0-0-0-0-0-0-0-0-0-0-0-0-0-0-0-0-0-0-0-0-0-0-||
B|-0-0-0-0-0-0-0-0-0-0-0-0-0-0-0-0-0-0-0-0-0-0-0-0-0-0-0-0-0-0-||
G|-7-7-7-7-7-7-7-7-7-7-7-7-7-7-7-7-7-7-7-7-7-7-7-7-7-7-7-7-7-7-||
D|-x-x-x-x-x-x-x-x-x-x-x-x-x-x-x-x-x-x-x-x-x-x-x-x-x-x-x-x-x-x-||
A|-5-5-5-5-5-5-5-5-5-5-5-5-5-5-5-5-5-5-5-5-5-5-5-5-5-5-5-5-5-5-||
E|-------------------------------------------------------------||

E|-0-0-0-0-0-0-0-0-0-0-0-0-0-0-0-0-0-0-0-0-0-0-0-0-0-0-0-0-0-0-||
B|-0-0-0-0-0-0-0-0-0-0-0-0-0-0-0-0-0-0-0-0-0-0-0-0-0-0-0-0-0-0-||
G|-7-7-7-7-7-7-7-7-7-7-7-7-7-7-7-7-7-7-7-7-7-7-7-7-7-7-7-7-7-7-||
D|-x-x-x-x-x-x-x-x-x-x-x-x-x-x-x-x-x-x-x-x-x-x-x-x-x-x-x-x-x-x-||
A|-5-5-5-5-5-5-5-5-5-5-5-5-5-5-5-5-5-5-5-5-5-5-5-5-5-5-5-5-5-5-||
E|-------------------------------------------------------------||

E|-0-0-0-0-0-0-0-0-0-0-0-0-0-0-0-0-0-0-0-0-0-0-0-0-0-0-0-0-0-0-||
B|-0-0-0-0-0-0-0-0-0-0-0-0-0-0-0-0-0-0-0-0-0-0-0-0-0-0-0-0-0-0-||
G|-2-2-2-2-2-2-2-2-2-2-2-2-2-2-2-2-2-2-2-2-2-2-2-2-4-4-4-4-4-4-||
D|-0-0-0-0-0-0-0-0-0-0-0-0-0-0-0-0-0-0-0-0-0-0-0-0-0-0-0-0-0-0-||
A|-x-x-x-x-x-x-x-x-x-x-x-x-x-x-x-x-x-x-x-x-x-x-x-x-x-x-x-x-x-x-||
E|-3-3-3-3-3-3-3-3-3-3-3-3-3-3-3-3-3-3-3-3-3-3-3-3-5-5-5-5-5-5-||

E|-0-0-0-0-0-0-0-0-0-0-0-0-0-0-0-0-0-0-0-0-0-0-0-0-0-xxxxxx-||
B|-0-0-0-0-0-0-0-0-0-0-0-0-0-0-0-0-0-0-0-0-0-0-0-0-0-xxxxxx-||
G|-2-2-2-2-2-2-2-2-2-2-2-2-2-2-2-2-2-2-2-2-2-2-2-2-4-xxxxxx-||
D|-0-0-0-0-0-0-0-0-0-0-0-0-0-0-0-0-0-0-0-0-0-0-0-0-0-xxxxxx-||
A|-x-x-x-x-x-x-x-x-x-x-x-x-x-x-x-x-x-x-x-x-x-x-x-x-x-xxxxxx-||
E|-3-3-3-3-3-3-3-3-3-3-3-3-3-3-3-3-3-3-3-3-3-3-3-3-5-xxxxxx-||
Chorus
E|-0-0-0-0-0-0-0-0-0-0-0-0-0-0-0-0-0-0-0-0---------------------||
B|-0-0-0-0-0-0-0-0-0-0-0-0-0-0-0-0-0-0-0-0---------------------||
G|-x-x-x-x-x-7-7-7-7-7-x-x-x-x-x-x-x-x-x-x12121212121212121212-||
D|-7-7-7-7-7-7-7-7-7-7-7-7-7-7-7-7-7-7-7-7-x-x-x-x-x-x-x-x-x-x-||
A|-4-4-4-4-4-5-5-5-5-5-7-7-7-7-7-5-5-5-5-510101010101010101010-||
E|---------------------5-5-5-5-5-7-7-7-7-7---------------------||

E|-------------------------||
B|-------------------------||
G|-12~------12~-------12~--||
D|--x--------x---------x---||
A|-10~------10~-------10~--||
E|-------------------------||
     . . . .   . . . .   .
E|-0-0-0-0-0-0-0-0-0-0-0-0-0-0-0-0-0-0-0-0-0-0-0-0-0-0-0-0-0-0-||
B|-0-0-0-0-0-0-0-0-0-0-0-0-0-0-0-0-0-0-0-0-0-0-0-0-0-0-0-0-0-0-||
G|-7-7-7-7-7-x-x-x-x-x-x-x-x-x-x-x-x-x-x-x-2-2-2-2-2-2-2-2-2-2-||
D|-7-7-7-7-7-7-7-7-7-7-7-7-7-7-7-7-7-7-7-7-0-0-0-0-0-0-0-0-0-0-||
A|-5-5-5-5-5-7-7-7-7-7-5-5-5-5-5-7-7-7-7-7-x-x-x-x-x-x-x-x-x-x-||
E|-----------5-5-5-5-5-7-7-7-7-7-5-5-5-5-5-3-3-3-3-3-3-3-3-3-3-||

E|-0~-----||
B|-0~-----||
G|-2~-----||
D|-0~-----||
A|-x------||
E|-3~-----||

E|-0-0-0-0-0-0-0-0-0-0-0-0-0-0-0-0-0-0-0-0-0-0-0-0-0-0-0-0-0-0-||
B|-0-0-0-0-0-0-0-0-0-0-0-0-0-0-0-0-0-0-0-0-0-0-0-0-0-0-0-0-0-0-||
G|-x-x-x-x-x-7-7-7-7-7-x-x-x-x-x-x-x-x-x-x-2-2-2-2-2-2-2-2-2-2-||
D|-7-7-7-7-7-7-7-7-7-7-7-7-7-7-7-7-7-7-7-7-0-0-0-0-0-0-0-0-0-0-||
A|-4-4-4-4-4-5-5-5-5-5-7-7-7-7-7-5-5-5-5-5-x-x-x-x-x-x-x-x-x-x-||
E|---------------------5-5-5-5-5-7-7-7-7-7-3-3-3-3-3-3-3-3-3-3-||

E|-------------------------||
B|-------------------------||
G|-2---------2---------2---||
D|-0-0-0-0-0-0-0-0-0-0-0-0-||
A|-x-x-x-x-x-x-x-x-x-x-x-x-||
E|-3-3-3-3-3-3-3-3-3-3-3-3-||
     . . . .   . . . .   .
E|-0-0-0-0-0-0-0-0-0-0-0-0-0-0-0-0-0-0-0-0-0-0-0-0-0-0-0-0-0-0-||
B|-0-0-0-0-0-0-0-0-0-0-0-0-0-0-0-0-0-0-0-0-0-0-0-0-0-0-0-0-0-0-||
G|-7-7-7-7-7-x-x-x-x-x-x-x-x-x-x-x-x-x-x-x-2-2-2-2-2-2-2-2-2-2-||
D|-7-7-7-7-7-7-7-7-7-7-7-7-7-7-7-7-7-7-7-7-0-0-0-0-0-0-0-0-0-0-||
A|-5-5-5-5-5-7-7-7-7-7-5-5-5-5-5-7-7-7-7-7-x-x-x-x-x-x-x-x-x-x-||
E|-----------5-5-5-5-5-7-7-7-7-7-5-5-5-5-5-3-3-3-3-3-3-3-3-3-3-||

E|-0-0-0-0-0-0-0-0-0-0-0-0-||
B|-0-0-0-0-0-0-0-0-0-0-0-0-||
G|-2-2-2-2-2-2-2-2-2-2-2-2-||
D|-0-0-0-0-0-0-0-0-0-0-0-0-||
A|-x-x-x-x-x-x-x-x-x-x-x-x-||
E|-3-3-3-3-3-3-3-3-3-3-3-3-||
Last Chorus
E|--0--0--0-0--0--0--0--0--0-0--0--0--0--0--0-0--0--0-0--0--0-0-||
B|-10-10-1010-10/12-12-12-1212-12--0--0--0--0-0--0--0-0--0--0-0-||
G|--9--9--9-9--9/11-11-11-1111-11--x--x--x--x-x--x--x-x--x--x-x-||
D|--0--0--0-0--0--0--0--0--0-0--0-16-16-16-1616-16/1414-14/1212-||
A|--x--x--x-x--x--x--x--x--x-x--x--x--x--x--x-x--x--x-x--x--x-x-||
E|-10-10-1010-10/12-12-12-1212-12/14-14-14-1414-14/1212-12/1010-||

E|--0--0--0-0--0--0--0--0--0-0--0--0--0--0--0-0--0--0-0--0--0-0-||
B|--0--0--0-0--0--0--0--0--0-0--0--0--0--0--0-0--0--0-0--0--0-0-||
G|--2--2--2-2--2/-4--4--4--4-4--4--7--7--7--7-7--9--9-9--9--9-9-||
D|--0--0--0-0--0--0--0--0--0-0--0--x--x--x--x-x--x--x-x--x--7-7-||
A|--x--x--x-x--x--x--x--x--x-x--x--5--5--5--5-5--7--7-7--7--0-0-||
E|--3--3--3-3--3/-5--5--5--5-5--5--7--7--7--7-7--9--9-9--9--x-x-||

E|---------------------------------0--0--0--0-0--0--0-0--0--0-0-||
B|---------------------------------0--0--0--0-0--0--0-0--0--0-0-||
G|-14-14-1414-14/16-16-16-1616-16--x--x--x--x-x--x--x-x--x--x-x-||
D|--x--x--x-x--x--x--x--x--x-x--x/16-16-16-1616-16/1414-14/1212-||
A|-12-12-1212-12/14-14-14-1414-14--x--x--x--x-x--x--x-x--x--x-x-||
E|-------------------------------/14-14-14-1414-14/1212-12/1010-||

E|--0--0--0-0--0--0--0--0--0-0--0--0--0--0--0-0--0--0-0--0--0-0-||
B|--0--0--0-0--0--0--0--0--0-0--0--0--0--0--0-0--0--0-0--0--0-0-||
G|--2--2--2-2--2/-4--4--4--4-4--4--7--7--7--7-7--9--9-9--9--9-9-||
D|--0--0--0-0--0--0--0--0--0-0--0--x--x--x--x-x--x--x-x--x--7-7-||
A|--x--x--x-x--x--x--x--x--x-x--x--5--5--5--5-5--7--7-7--7--0-0-||
E|--3--3--3-3--3/-5--5--5--5-5--5--7--7--7--7-7--9--9-9--9--x-x-||
Outro
E|-------------------------------------0~~~-||
B|-------------------------------------0~~~-||
G|-------------2-2---2-2---------------2~~~-||
D|-2-2---2-2---0-0-0-0-0-0-9-9---9-9---0~~~-||
A|-2-2-2-2-2-2-x-x-x-x-x-x-7-7-7-7-7-7-x~~~-||
E|-0-0-0-0-0-0-3-3-3-3-3-3-0-0-0-0-0-0-3~~~-||
       .     .     .     .     .     .





Comments


Popular Starting Line tabs & chords
Cheek To Cheek Bass Tabs
21 1 Chords
Hold On Chords
Pictures Chords
Something Left To Give Chords
Something Left To Give Intro Tabs
What You Want Tabs
Im Real Ukulele
Island Ukulele
Need To Love Ukulele


Song lyrics



↑ Back to top | Tablatures and chords are parodies/interpretations of the original songs. You may use it for private study, scholarship, research or language learning purposes only
© 2014 AZChords.com Contact us | Privacy policy | DMCA | Add/correct tabs | Request tabs | Top 50 tabs