>
 >
Best Of Me

Best Of Me Guitar Tabs

Starting Line - Best Of Me chords, tabs, tablatures, lyrics

Guitar lessons | Add/correct | Request | Top 50 tabs Artists:  A B C D E F G H I J K L M N O P Q R S T U V W X Y Z 0-9

Best Of Me Guitar Tabs – Starting Line

CD, Sheet music, Poster

Do you like Best Of Me? Share with your friends now
Bass TabsChordsTabsUkulele
Tuning:		Standard


INTRO:
Guitar 1:
e|--0--0--0--0--0--0--0--0--|--0--|
B|--0--0--0--0--0--0--0--0--|--0--|  x3
G|--1--2--4--4--2--2--4--4--|--2--|
D|--2--2--4--2--2--2--2--4--|--2--|
A|--2--0--2--4--0--0--4--2--|--0--|
E|--0-----------------------|-----|
Guitar 2:
e|--0--0--0--0--0---0--0--0-|--0--|
B|--0--0--0--0--0---0--0--0-|--0--|  x2
G|--9--9--8--6--13--9--9--8-|--6--|
D|--9--7--9--7--14--7--9--9-|--7--|
A|--7--7--9--7--12--7--7--9-|--7--|
E|--------------------------|-----|

Add this before VERSE 1
Guitar 1:
e|----0--------0-------|
B|---0---0-0--0---0-0--|
G|--9-----9--9-----9---|
D|---------------------|
A|---------------------|
E|---------------------|

Add this before every VERSE
Guitar 2:
e|--0--
B|--0--
G|--1--
D|--2--
A|--2--
E|--0--

VERSE PART
----------------------------------------------------

Guitar 1:
e|----0--0--0--0--0--0--0--0--0--0--0--0--|
B|---0--0-----0--0-----0--0-----0--0------|  x3
G|--9--9--9--8--8--8--6--6--6--4--4--4----|
D|----------------------------------------|
A|----------------------------------------|
E|----------------------------------------|
Guitar 2:
e|-----0-------|
B|----9---9----|
G|--11--11-11--|
D|-------------|
A|-------------|
E|-------------|

To meet a familiar voice..
Guitar 1 & 2:                          E - Guitar 2
e|--0-------------------------------|--0--|
B|--0-------------------------------|--0--|
G|--2-------------------------------|--1--|
D|--2-------------------------------|--2--|
A|--0-------------------------------|--2--|
E|----------------------------------|--0--|

Guitar 1:
e|----0--0--0--0--0--0--0--0--0--0--0--0--|
B|---0--0-----0--0-----0--0-----0--0------|  x3
G|--9--9--9--8--8--8--6--6--6--4--4--4----|
D|----------------------------------------|
A|----------------------------------------|
E|----------------------------------------|
Guitar 2:
e|-----0-------|
B|----9---9----|
G|--11--11-11--|
D|-------------|
A|-------------|
E|-------------|

And missing each other too..
Guitar 1 & 2:                          E - Guitar 2
e|--0-------------------------------|--0--|
B|--0-------------------------------|--0--|
G|--2-------------------------------|--1--|
D|--2-------------------------------|--2--|
A|--0-------------------------------|--2--|
E|----------------------------------|--0--|

Guitar 1:
e|----0--0--0--0--0--0--0--0--0--0--0--0--|
B|---0--0-----0--0-----0--0-----0--0------|  x3
G|--9--9--9--8--8--8--6--6--6--4--4--4----|
D|----------------------------------------|
A|----------------------------------------|
E|----------------------------------------|
Guitar 2:
e|--0--
B|--0--
G|--1--
D|--2--
A|--2--
E|--0--

We turn our music down..
Guitar 1 & 2:
e|--0--0--0--0--|
B|--0--0--0--0--|
G|--2--2--2--2--|
D|--4--2--4--2--|
A|--4--0--4--0--|
E|--------------|

VERSE 2 IS SHORTER BUT IT'S PLAYED THE SAME
-------------------------------------------


CHORUS:
Guitar 1 & 2:
e|--0--0--0--0--0--0--0--0--|--0--|
B|--0--0--0--0--0--0--0--0--|--0--|
G|--1--2--4--4--2--2--4--4--|--2--|
D|--2--2--4--2--2--2--2--4--|--2--|
A|--2--0--2--4--0--0--4--2--|--0--|
E|--0-----------------------|-----|


INTERLUDE / SAME AS INTRO


BRIDGE:
Guitar 2
PART 1
e|-------------------|
B|----0---0---0---0--|
G|----4---4---4---4--|
D|---2---2---2---2---| x1
A|--4---0---4---0----|
E|-------------------|
PART 2
e|---------------------------------|
B|---------------------------------|
G|----4--4------4--4------4--4-----|
D|---2-----2---2-----2---2-----2---| x1
A|--4--4--4-4-0--0--0-0-4--4--4-4--|
E|---------------------------------|
PART 3
e|-------------         |-----|
B|-------------         |-----|
G|----4--2-4---         |--4--|
D|---2--2------ x3 then |--2--|
A|--0--0----0--         |--0--|
E|-------------         |-----|

Guitar 1: Start on Guitar 2 PART 2
PART 1
e|---0----|--0--0--0-|--0----|
B|--2-4-2-|-0-0--0---|-2-4-2-| x1
G|--------|----4--4--|-------|
D|--------|----------|-------|
A|--------|----------|-------|
E|--------|----------|-------|
PART 2
e|--0--0--0-         |--0--|
B|-0-0--0--- x3 then |--0--|
G|----4--4--         |--4--|
D|----------         |-----|
A|----------         |-----|
E|----------         |-----|


LAST CHORUS:
GUITAR 1 & 2
e|--0--0--0--0--0--0--0--0--0--0--0--0--|--0--|
B|--0--0--0--0--0--0--0--0--0--0--0--0--|--0--|
G|--1--2--4--4--2--2--4--4--4--4--4--4--|--2--|
D|--2--2--4--2--2--2--2--4--2--4--2--4--|--2--|
A|--2--0--2--4--0--0--4--2--4--2--4--2--|--0--|
E|--0-----------------------------------|-----|


IF IT'S TO BLURRY, SEND ME AN E-MAIL





Comments


Popular Starting Line tabs & chords
Bedroom Talk Bass Tabs
Drawbacks 1 Chords
Island Chords
Need To Love Chords
Lasting Impression 1 Tabs
Make Yourself At Home Tabs
Making Love To The Camera Tabs
Making Love To The Camera 1 Tabs
Three's A Charm 1 Tabs
Autography Ukulele


Song lyrics



↑ Back to top | Tablatures and chords are parodies/interpretations of the original songs. You may use it for private study, scholarship, research or language learning purposes only
© 2014 AZChords.com Contact us | Privacy policy | DMCA | Add/correct tabs | Request tabs | Top 50 tabs