>
 >
Artistic License

Artistic License Guitar Tabs

Starting Line - Artistic License chords, tabs, tablatures, lyrics

Guitar lessons | Add/correct | Request | Top 50 tabs Artists:  A B C D E F G H I J K L M N O P Q R S T U V W X Y Z 0-9

Artistic License Guitar Tabs – Starting Line

CD, Sheet music, Poster

Do you like Artistic License? Share with your friends now
ChordsChords v2TabsUkulele
This is my first tab so bear with me......

Intro/Verse
e|--------------------------------------------------|
B|--------------------------------------------------|
G|-7777---7777---4444---4444---7777---7777---4--4---|
D|-7777---7777---4444---4444---7777---7777---4--4---|
A|-5555---5555---2222---2222---5555---5555---2--2---|
E|--------------------------------------------------|

e|--------------------------------------------------|
B|--------------------------------------------------|
G|-7777---7777---4444---444477777---7777---4--4-----|
D|-7777---7777---4444---444477777---7777---4--4-----|
A|-5555---5555---2222---222255555---5555---2--2-----|
E|--------------------------------------------------|

Chorus
e|-----------------------------------------|
B|-----------------------------------------|
G|-4----4---------------7-----2--2---------|
D|-4----4-x6----5-------7-x6--2--2---------| x2
A|-2----2-------5-x6----5-----0--0---------|
E|--------------3--------------------------|

e|------------------------------------------------|
B|------------------------------------------------|
G|-4-------7-------9-------11-------9---7---------|
D|-4-x6----7-x6----9-x6----11-x6----9---7---------|
A|-2-------5-------7--------9-------7---5---------|
E|------------------------------------------------|

Part after Chorus
e|-------------------------------------------------------|
B|-------------------------------------------------------|
G|-6-7-6--------11-11-9-9---6-7-6-----6-7-6-9--7-7--7-7--|
D|-6-7-6-7-x3---11-11-9-9---6-7-6-7---6-7-6-9--7-7--7-7--|
A|-4-5-4-7-------9--9-7-7---4-5-4-7---4-5-4-7--5-5--5-5--|
E|-------5------------------------5----------------------|

Repeat Verse x1


Repeat Chorus x1


Bridge
e|-----------------------------------------------------|
B|-----------------------------------------------------|
G|-7777---7777---4444---4444------2---2----------------|
D|-7777---7777---4444---4444-x3---2---2---5------------|
A|-5555---5555---2222---2222------0---0---5-x8---------|
E|----------------------------------------3------------|

Chorus
e|-----------------------------------------|
B|-----------------------------------------|
G|-4----4---------------7-----2--2---------|
D|-4----4-x6----5-------7-x6--2--2---------| x2
A|-2----2-------5-x6----5-----0--0---------|
E|--------------3--------------------------|

e|------------------------------------------------|
B|------------------------------------------------|
G|-4-------7-------9-------11-------9---7---------|
D|-4-x6----7-x6----9-x6----11-x6----9---7---------|
A|-2-------5-------7--------9-------7---5---------|
E|------------------------------------------------|

e|------------------------------------------------|
B|------------------------------------------------|
G|-4-------7-------9-------11-------9---9---------|
D|-4-x6----7-x6----9-x6----11-x6----9---9---------|
A|-2-------5-------7--------9-------7---7---------|
E|------------------------------------------------|

Solo/Ending
e|------------------------------------------------|
B|--10-10-10-7-8-7--------------------------------|
G|-----------------7---7-11-12-11-7---7-----------|
D|-------------------9--------------9---9---------|
A|------------------------------------------------|
E|------------------------------------------------|

e|------------------------------------------------|
B|--10-10-10-7-8-7-------7-8-7---7----------------|
G|-----------------7---7-------7---7--------------|
D|-------------------9---------------7------------|
A|------------------------------------------------|
E|------------------------------------------------|

2nd Part
e|---------------------------------------------------|
B|--------------------------------10-------10-10-7---|
G|---7---6-4-2---7---6-2-4--4-6-7----4-6-7-----------|
D|-7---7-------7---7---------------------------------| x2
A|---------------------------------------------------|
E|---------------------------------------------------|

I'm not sure if it's 100%, but it sounds good to me!





Comments


Popular Starting Line tabs & chords
Hello Houston Bass Tabs
Saddest Girl Story 2 Bass Tabs
Up And Go Bass Tabs
Best Of Me Chords
World Chords
Left Coast Envy 1 Tabs
The Best Of Meacoustic Tabs
Up And Go Tabs
Bedroom Talk Ukulele
Drama Summer Ukulele


Song lyrics



↑ Back to top | Tablatures and chords are parodies/interpretations of the original songs. You may use it for private study, scholarship, research or language learning purposes only
© 2014 AZChords.com Contact us | Privacy policy | DMCA | Add/correct tabs | Request tabs | Top 50 tabs